Song name
# A B C D E F G H I J K L M N O P Q R S T U V W X Y Z

Pitchshifter - Condescension tab

Band - Pitchshifter
Song - Condescension
Album - Deviant
Tabbed by Tom Brunner
Drop d tuning

Intro / verse
|---------------------------------------------------|
|---------------------------------------------------|
|---------------------------------------------------|
|---------------------------------------------------|
|---------------------------------------------------|
|----12---12-12---15-14-14---16---16-16-16-16-17-16-|


Later on in the verse this second guitar comes in
|----------------------|
|----------------------|
|----------------------|
|-2------------5-----6-|
|-2------------5-----6-|
|-2------------5-----6-|


Chorus
|-------------------------------------------|
|-------------------------------------------|
|-------------------------------------------|
|-7--------3-----4-----7-----10-----5-----3-|
|-7--------3-----4-----7-----10-----5-----3-|
|-7--------3-----4-----7-----10-----5-----3-|


Fill
|-------------------------------------------------------------|
|-------------------------------------------------------------|
|-------------------------------------------------------------|
|-7-7-7-7-7-7---2-2-2--2--2--2---5-5-5-5-5-5---2-2-2--2--2--2-|
|-7-7-7-7-7-7---2-2-2--2--2--2---5-5-5-5-5-5---2-2-2--2--2--2-|
|-7-7-7-7-7-7---2-2-2--2--2--2---5-5-5-5-5-5---2-2-2--2--2--2-|

That's all of it
Tap to rate this tab
# A B C D E F G H I J K L M N O P Q R S T U V W X Y Z