Guitaretab - guitar tabs
Song name
# A B C D E F G H I J K L M N O P Q R S T U V W X Y Z

Pitchshifter - Eight Days tab

[Intro]

E:--55-3-55-3-55-3-55-6-55-|(X3)
A:-------------------------|
D:-------------------------|
G:-------------------------|
B:-------------------------|
E:-------------------------|

E:--55-3-55-3-55-3-55-6-55-|
A:--55-3-55-3-55-3-55-6-55-|
D:--77-5-77-5-77-5-77-8-77-|
G:--77-5-77-5-77-5-77-8-77-|
B:--55-3-55-3-55-3-55-6-55-|
E:--55-3-55-3-55-3-55-6-55-|

[Verse 1]
E:--55-3-55-3-55-3-55-6-55-|
A:-------------------------|
D:-------------------------|
G:-------------------------|
B:-------------------------|
E:-------------------------|

E:--3-55-3-55-3-55-6-55-|
A:--3-55-3-55-3-55-6-55-|
D:--5-77-5-77-5-77-8-77-|
G:--5-77-5-77-5-77-8-77-|
B:--3-55-3-55-3-55-6-55-|
E:--3-55-3-55-3-55-6-55-|


E:--3-55-3-55-3-55-6-55-|
A:----------------------|
D:----------------------|
G:----------------------|
B:----------------------|
E:----------------------|

E:--3-55-3-55-3-55-6-55-|
A:--3-55-3-55-3-55-6-55-|
D:--5-77-5-77-5-77-8-77-|
G:--5-77-5-77-5-77-8-77-|
B:--3-55-3-55-3-55-6-55-|
E:--3-55-3-55-3-55-6-55-|

E:--3-55-3-55-3-55---|
A:--3-55-3-55-3-55---|
D:--5-77-5-77-5-77---|(x2)
G:--5-77-5-77-5-77---|
B:--3-55-3-55-3-55---|
E:--3-55-3-55-3-55---|


[Chorus]


E:--8-4--X-|
A:--10-6--2-|
D:--10-6--4-|
G:--X-X--4-|
B:--X-X--X
E:--X-XX
[ Tab from: http://www.guitaretab.com/p/pitchshifter/76624.html ]
[Verse 2]
E:--55-3-55-3-55-3-55-6-55-|
A:-------------------------|
D:-------------------------|
G:-------------------------|
B:-------------------------|
E:-------------------------|

E:--3-55-3-55-3-55-6-55-|
A:--3-55-3-55-3-55-6-55-|
D:--5-77-5-77-5-77-8-77-|
G:--5-77-5-77-5-77-8-77-|
B:--3-55-3-55-3-55-6-55-|
E:--3-55-3-55-3-55-6-55-|


E:--3-55-3-55-3-55-6-55-|
A:----------------------|
D:----------------------|
G:----------------------|
B:----------------------|
E:----------------------|

E:--3-55-3-55-3-55-6-55-|
A:--3-55-3-55-3-55-6-55-|
D:--5-77-5-77-5-77-8-77-|
G:--5-77-5-77-5-77-8-77-|
B:--3-55-3-55-3-55-6-55-|
E:--3-55-3-55-3-55-6-55-|

E:--3-55-3-55-3-55---|
A:--3-55-3-55-3-55---|
D:--5-77-5-77-5-77---|(x2)
G:--5-77-5-77-5-77---|
B:--3-55-3-55-3-55---|
E:--3-55-3-55-3-55---|

[Chorus]


E:--8-4--x-|
A:--10-6--2-|
D:--10-6--4-|
G:--x-x--4-|
B:--x-x--x
E:--x-x--x


[Bridge]
E:--555-3----|
A:--555-3----|
D:--777-5---| (x4)
G:--777-5----|
B:--555-3----|
E:--555-3----|

E:--555-6----|
A:--555-6----|
D:--777-8----|
G:--777-8----|
B:--555-6----|
E:--555-6----|

E:--------------------------------------------|
B:--------------------------------------------|
G:--------------------------------------------|
D:--------------------------------------------|
A:--5-h7-p5-h7-p5-h7-p5-h7-p5-h7-p5-h7-p5-h7--|
E:--------------------------------------------|

[Final chorus]

E:--3-55-3-55-3-55---|
A:--3-55-3-55-3-55---|
D:--5-77-5-77-5-77---|(x2)
G:--5-77-5-77-5-77---|
B:--3-55-3-55-3-55---|
E:--3-55-3-55-3-55---|


E:--8-4--x-|
A:--10-6--2-|
D:--10-6--4-|
G:--x-x--4-|
B:--x-x--x
E:--x-x--x
Related for Eight Days tab