Song name
# A B C D E F G H I J K L M N O P Q R S T U V W X Y Z

Pito Perez - Mi Lupita tab

e------------------------------------------------------12------------------|
B---------------------------------------------------12----(7)-9~~~---------|
G-----------------------11~~-----------------------------------------------|
D------6-7-6-7-6-----------------6-7-6-7-7/9-7-6---------------------------|
A--7/9-----------7-7/9-------7/9-----------------7-------------------------|
E--------------------------------------------------------------------------|


e--------------------------------------------------9---------12^^~~-------|
B-----------10-12-12^^-12-10-12------9--------12^^---12-9-----------------|
G---8/9-8-9----------------------11^^--11-9-------------------------------|
D-------------------------------------------------------------------------|
A-------------------------------------------------------------------------|
E-------------------------------------------------------------------------|
                                             |this 5 times|


This is my first tablature, i think all is right.
-----B.Charly
Tap to rate this tab
# A B C D E F G H I J K L M N O P Q R S T U V W X Y Z