Song name
# A B C D E F G H I J K L M N O P Q R S T U V W X Y Z

Pity Sex - Hollow Body tab

-----------------------------------------------------------------------------
                             HOLLOW BODY - Pity Sex
-----------------------------------------------------------------------------
Tuning: Standard, Capo on 3rd fret

Remember to capo it, and just slowly arpeggiate the chords in triplet feel

  C          Am
e|------------------0--|
B|------1--------1-----|
G|---------0---2-------|x16
D|----2------2---------|
A|-3-------------------|
E|---------------------|

  Am
e|------0---------0---------0---------0-----|
B|----1----1----1----1----1----1----1----1--|
G|-2---------2---------2---------2----------|
D|------------------------------------------|
A|------------------------------------------|
E|------------------------------------------|

  G
e|------0---------0---------0---------0-----|
B|----3----3----3----3----3----3----3----3--|
G|-4---------4---------4---------4----------|
D|------------------------------------------|
A|------------------------------------------|
E|------------------------------------------|

  Am
e|------0---------0---------0---------0-----|
B|----1----1----1----1----1----1----1----1--|
G|-2---------2---------2---------2----------|
D|------------------------------------------|
A|------------------------------------------|
E|------------------------------------------|

  G
e|------0---------0---------0----5----0-----|
B|----3----3----3----3----3----3----3----0--|
G|-4---------4---------4--------------------|
D|------------------------------------------|
A|------------------------------------------|
E|------------------------------------------|

  C          Am
e|------------------0--|
B|------1--------1-----|
G|---------0---2-------|x10
D|----2------2---------|
A|-3-------------------|
E|---------------------|
Tap to rate this tab
# A B C D E F G H I J K L M N O P Q R S T U V W X Y Z