Song name
# A B C D E F G H I J K L M N O P Q R S T U V W X Y Z

Pity Sex - Wind-up tab

-----------------------------------------------------------------------------
                          WIND-UP - Pity Sex
-----------------------------------------------------------------------------

Tuning: Drop D

Verse: x2
e|---------------------------------|
B|---------------------------------|
G|-7-7-7-7-7-7-7-7-----------------|
D|-7-7-7-7-7-7-7-7-5-5-5-5-5-5-5-5-|
A|-5-5-5-5-5-5-5-5-5-5-5-5-5-5-5-5-|
D|-0-0-0-0-0-0-0-0-5-5-5-5-5-5-5-5-|
 |                                 |
e|---------------------------------|
B|---------------------------------|
G|-7-7-7-7-7-7-7-7-4/2-2-2-2-2-2-4-|
D|---------------------------------|
A|---------------------------------|
D|---------------------------------|

Chorus:
e|-----------------------------------------------------------------|
B|-----------------------------------------------------------------|
G|-7-7-7-7-7-7-7-7-------------------------------------------------|
D|-7-7-7-7-7-7-7-7-7-7-7-7-7-7-7-7-5-5-5-5-5-5-5-5-7-7-7-7-7-7-7-7-|
A|-5-5-5-5-5-5-5-5-7-7-7-7-7-7-7-7-5-5-5-5-5-5-5-5-7-7-7-7-7-7-7-7-|
D|-0-0-0-0-0-0-0-0-7-7-7-7-7-7-7-7-5-5-5-5-5-5-5-5-7-7-7-7-7-7-7-7-|
 |                                                                 |
e|-----------------------------------------------------------------|
B|-----------------------------------------------------------------|
G|-7-7-7-7-7-7-7-7-6-6-6-6-6-6-6-7-4-4-4-4-4-4-4-2-6-6-6-6-6-6-6-7-|
D|-----------------------------------------------------------------|
A|-----------------------------------------------------------------|
D|-----------------------------------------------------------------|

Bridge:
e|------------------------------|--|---------------------------------|
B|------------------------------|--|---------------------------------|
G|-7-7-7-7---7------------------|x3|---------------------------------|
D|-7-7-7-7---7-7--7-7-7-7-7-7-7-|--|-5-5-5-5-5-5-5-5-5-5-5-5-5-5-5-5-|
A|-5-5-5-5---5-7--7-7-7-7-7-7-7-|--|-5-5-5-5-5-5-5-5-5-5-5-5-5-5-5-5-|
D|-0-0-0-0---0-7--7-7-7-7-7-7-7-|--|-5-5-5-5-5-5-5-5-5-5-5-5-5-5-5-5-|
 |                                                                   |
e|------------------------------|--|---------------------------------|---|
B|-------7----------------------|--|--------------------------7p5----|---|
G|-----------7-6-~~~~-----7-----|x3|-6---7---7--------------7----7h9-|7--|
D|-7h9p7------------------------|--|---------------------------------|---|
A|------------------------------|--|---------------------------------|---|
D|------------------------------|--|---------------------------------|---|


Interlude:
e|----------------------------------------------------------|
B|----------------------------------------------------------|
G|---7------------------------------------------------------|
D|---------4hb5r4----7-7-7-7/4-4-----2-2-2-2/4-4------4/2p0-|
A|-5--------------------------------------------------------|
D|----------------------------------------------------------|

e|---------------------------------|
B|---------------------------------|
G|---------7-7-7-7-4-4-4-4-7-7-7-7-|
D|-5-5-5-5-4-4-4-4-4-4-4-4-4-4-4-4-|
A|-5-5-5-5-5-5-5-5-2-2-2-2-5-5-5-5-|
D|-5-5-5-5-------------------------|


Guitar Solo: (lots of wah)
e|-----------------------------------|--|
B|-7-7-7-7-5-5-5-5-------------------|--|
G|-----------------6-6-6-6h7-7-7p6-6-|x2|
D|-----------------------------------|--|
A|-----------------------------------|--|
D|-----------------------------------|--|

e|---------5-5-5-5-9-5-5-5h9-9-10-10-10-|---5-5-5---5-5-5-9-----9-10-10-10-|
B|-7-7-7-7------------------------------|-7------7---------10-10-----------|
G|--------------------------------------|----------------------------------|
D|--------------------------------------|----------------------------------|
A|--------------------------------------|----------------------------------|
D|--------------------------------------|----------------------------------|
Tap to rate this tab
 
# A B C D E F G H I J K L M N O P Q R S T U V W X Y Z