Song name
# A B C D E F G H I J K L M N O P Q R S T U V W X Y Z

Pity Sex - St Johns Wort tab

-------------------------------------------------------------------------------
                             St. John's Wort - Pity Sex
-------------------------------------------------------------------------------
Just the basics

Tuning: Standard

Intro and verse
e|----------------------------------------|----------------------------------------|
B|----------------------------------------|---The second time end with-------------|
G|--7-9-7--------9-------7-9-7--------4--|------------------------------1----------|
D|--------10-----10------------10-----5--|------------------------------2----------|
A|---------------10-------------------5---|-----------------------------2----------|
E|---------------8--------------------3---|-----------------------------0----------|

Chorus
e|--------------------------------|
B|--------------------------------|
G|--9-----11----4---1-------------|
D|--10----12----5---2-------------|
A|--10----12----5---2-------------|
E|--8-----10----3---0-------------|
Tap to rate this tab
# A B C D E F G H I J K L M N O P Q R S T U V W X Y Z