Song name
# A B C D E F G H I J K L M N O P Q R S T U V W X Y Z

Pity Sex - Dogwalk tab

-------------------------------------------------------------------------------
                             Dogwalk - Pity Sex
-------------------------------------------------------------------------------
Thanks to "aramasepar" for submitting the verse and chorus. I just finished it off.


Intro/Verse:

E|----------------------------------|----------------------------------|
B|----------------------------------|----------------------------------|
G|-----2-----2--2--2----------------|-----2-----2--2--2----------------|
D|-----4-----4--4--4--2/4--2--0--2--|-----4-----4--4--4--2/4--2--0--2--|
A|-----5-----5--5--5----------------|-----5-----5--5--5----------------|
E|--3--3--3--3--3--3----------------|--3--3--3--3--3--3----------------|

E|-----2-----2--2--2--2--2--5--5--2--|-----2-----2--2--2-----2-----------|
B|-----2-----2--2--2--2--2--2--2--2--|-----2-----2--2--2--5-----5--3--5--|
G|-----2-----2--2--2--2--2--2--2--2--|-----2-----2--2--2-----------------|
D|--0-----0--------------------------|--0-----0--------------------------|
A|-----------------------------------|-----------------------------------|
E|-----------------------------------|-----------------------------------|

Chorus:

E|-----|
B|-----|
G|--2--|
D|--4--|
A|--5--|
E|--3--|


E|-----------------------------------------------------|
B|--3/5--5/7--5\3---------------3/5--5/7--5\3----------|
G|-----------------4----2--2/4-----------------4--4/7--|
D|-----------------------------------------------------|
A|-----------------------------------------------------|
E|-----------------------------------------------------|


Then:

e|-----------------------------------------------------------------------|
B|----------3--------3--------------repeat-------------------------------|
G|--4---7---2--------2--4--7---------------------------------------------|
D|--4---7---0--------0--4--7---------------------------------------------|
A|--2---5---0--------0--2--5---------------------------------------------|
E|--2---5---------------2--5---------------------------------------------|

Solo:

t= tremolo picking

e|-------------------10/12-12/14--12/10-------------------------------|
B|--7t-12t-10t-12t-------------------------12-1212-12/10-10/12--------|
G|--------------------------------------------------------------------|
D|--------------------------------------------------------------------|
A|--------------------------------------------------------------------|
E|--------------------------------------------------------------------|

e|--10/12-12/14-12/10---14-14~-14-14~-14/12-12/14----14t-----------------------|
B|-----------------------------------------------------------------------------|
G|-----------------------------------------------------------------------------|
D|-----------------------------------------------------------------------------|
A|-----------------------------------------------------------------------------|
E|-----------------------------------------------------------------------------|

e|---14t--17t--14t--17t-19t--17t--15t14t--19t-22t--21t-17t\----------------------|
B|-------------------------------------------------------------------------------|
G|-------------------------------------------------------------------------------|
D|-------------------------------------------------------------------------------|
A|-------------------------------------------------------------------------------|
E|-------------------------------------------------------------------------------|
Tap to rate this tab
# A B C D E F G H I J K L M N O P Q R S T U V W X Y Z