Song name
# A B C D E F G H I J K L M N O P Q R S T U V W X Y Z

Pivit - One Minute More tab

#----------------------------------PLEASE NOTE--------------------------------#
#This file is the author's own work and represents their interpretation of the#
#song. You may only use this file for private study, scholarship, or research.#
#-----------------------------------------------------------------------------#
#-- File created with Instab - http://www.pconline.com/~smcarey/instab.html --#
#-----------------------------------------------------------------------------#

Author/Artist: pivit
Title: one minute more
Album: i dunno
Transcribed by: leo
Email: iml30@aol.com

i fucked up on the other one i did this one is better.
this one is more accurate.
jeremy g. is gay

------------------------------------------------------------------------------|
------------------------------------------------------------------------------|
----------------------------0-------------------------------------------------|
-2--2--2-3--3--3-2--2--2-0---0------------------------------------------------|
--00-00-0-33-33-3-33-33-3-22--3-----------------------------------------------|
------------------------------------------------------------------------------|
     *i think this is bass*  play this six times

------------------------------------------------------------------------------|
------------------------------------------------------------------------------|
--2-2-2-2-2-2-2-2-------------------5-5-5-5-5-5-5-5---------------------------|
--2-2-2-2-2-2-2-2--3-3-3-3-3-3-3-3--5-5-5-5-5-5-5-5--5-5-5-5-5-5-5-5----------|
--0-0-0-0-0-0-0-0--3-3-3-3-3-3-3-3--3-3-3-3-3-3-3-3--5-5-5-5-5-5-5-5----------|
-------------------1-1-1-1-1-1-1-1-------------------3-3-3-3-3-3-3-3----------|
   *play this after the 3rd time of the bass intro*  ^distortion

------------------------------------------------------------------------------|
------------------------------------------------------------------------------|
--14-14-14-14--17-17-17-17--14-14-14-14--12-12-12-12--------------------------|
--14-14-14-14--17-17-17-17--14-14-14-14--12-12-12-12--------------------------|
--12-12-12-12--15-15-15-15--12-12-12-12--10-10-10-10--------------------------|
------------------------------------------------------------------------------|
     play this after bass intro

-----5---7---8---|--8-8-7-5---------------------------------------------------|
---5---5---5---5-|------------------------------------------------------------|
-----------------|------------------------------------------------------------|
-----------------|------------------------------------------------------------|
-----------------|------------------------------------------------------------|
-----------------|------------------------------------------------------------|
   ^ four  times     ^add this on the fourth time *this is all i know*

------------------------------------------------------------------------------|
------------------------------------------------------------------------------|
------------------------------------------------------------------------------|
------------------------------------------------------------------------------|
------------------------------------------------------------------------------|
------------------------------------------------------------------------------|
Tap to rate this tab
# A B C D E F G H I J K L M N O P Q R S T U V W X Y Z