Song name
# A B C D E F G H I J K L M N O P Q R S T U V W X Y Z

Pixie Lott - Mama Do Uh Oh Uh Oh Acoustic chords

Ebm 
Every night I go
                 Abm
Every night I go sneaking out the door
Bb
I lie a little more
Ebm
Baby Iíma helpless

--------------|
--------------|
--------------|
--------------|
--------------|
--5/7--6------|


Ebm
Thereís something bout the night
                     Abm
And the way it hides all the things I like
Bb
Little black butterflies
Ebm
Deep inside me

--------------|
--------------|
--------------|
--------------|
--------------|
--2-3-4-------|


[chorus]
Abm                    Ebm
What would my Mama Do (uh oh uh oh)
Bb                           Ebm
If she knew bout me and you (uh oh uh oh)

--------------|
--------------|
--------------|
--------------|
--------------|
--2-3-4-------|


Abm                      Ebm
What would my Daddy say (uh oh uh oh)
Bb                          Ebm
If he saw me hurt this way (uh oh uh oh)
  Xx xx x
--------------|
--------------|
--------------|
--------------|
--44-55-6-----|
--------------|









Ebm
Why should i feel ashamed
                      Abm
Feeling guilty at the mention of your name
Bb
Here we are again
Ebm
Its really perfect

--------------|
--------------|
--------------|
--6/8-6-4-3---|
--------------|
--4/6-4-2-1---|


[chorus]

Abm                Ebm
What would my moma do?
Bb                  Ebm
What would my daddy say, yeah.

Ebm Bb (strum once) 
                                 Ebm Bb (strum once)
All the things a girl should know
                                 Ebm Bb (strum once)
All the things she canít control
                                 Ebm Bb
All the things a girl should know
SHE CANíT CONTROL

Abm                    Ebm
What would my Mama Do (uh oh uh oh)
Bb                     Ebm
If she knew bout me and you (uh oh uh oh)

--------------|
--------------|
--------------|
--6/8-6-4-3---|
--------------|
--4/6-4-2-1---|


Abm                    Ebm
What would my Daddy say (uh oh uh oh)
Bb                      Ebm
If he saw me hurt this way (uh oh uh oh)


Tap to rate this tab
 
# A B C D E F G H I J K L M N O P Q R S T U V W X Y Z