Song name
# A B C D E F G H I J K L M N O P Q R S T U V W X Y Z

Pixie Lott - Band Aid tab

This is quick, I'm sure it's very very close to the track, the guitar is
tuned a little flat.
richardandersonmusic@hotmail.com
Capo fret 5
Enjoy!

E-------------------2------------------|
B-------1-----------3------------------|
G-------0-----------2------------------|
D--0h2---------0----------------------0|
A3----------------------------0h2-----2|
E------------------------0-------------|



E-2h3p0---------2h3p0----|
B--------3--------------3|
G------------------------|
D------------------------|
A------------------------|
E-0-------------0--------|



E----------------------------|
B-----------1---------------3|
G-----------0---------------2|
D----0h2---------------------|
A-0--------------------------|
E---------------------2------|



E----------------------------|
B----------------------------|
G-0---------------0----------|
D-----0-----------0----------|
A-3---------------2----------|
E----------------------------|
Tap to rate this tab
 
# A B C D E F G H I J K L M N O P Q R S T U V W X Y Z