Song name
# A B C D E F G H I J K L M N O P Q R S T U V W X Y Z

Pixies - Broken Face tab

my band covers this song, and this is how we play it. just listen to the song for the strum.

Intro:(guitar 1)
e----------------------------|
B----------------------------|
G----------------------------|
D----------------------------|
A-7-------7-------7----------|
E-5-------5-------5----------|

(guitar 2)

e----------------------------|
B----------------------------|
G-9b-------------------------|
D----------------------------|
A----------------------------|
E----------------------------|

intro pt 2
e----------------------------|
B----------------------------|
G----------------------------|
D----------------------------|
A-7-7-7-7-7-7-7-7-7----------|
E-5-5-5-5-5-5-5-5-5----------|

verse:
e----------------------------|
B----------------------------|
G----------------------------|
D----------------------------|
A-7-7--10-10-5-5-------------|
E-5-5--8--8--3-3-------------|

chorus:(x3)
e---------------------------|
B---------------------------|
G---------------------------|
D------7-7-----9-9----------|
A--7-7-5-5-9-9-7-7----------|
E--5-5-----7-7--------------|


Song Order:
intro
intro pt.2
verse
chorus
intro
intro pt.2
verse
chours
Tap to rate this tab
# A B C D E F G H I J K L M N O P Q R S T U V W X Y Z