Guitaretab - guitar tabs
Song name
# A B C D E F G H I J K L M N O P Q R S T U V W X Y Z

Pixies - Cecilia Ann tab

Pixies
Cecilia Ann
Standard Tuning
Tabbed By Peter (grubepeter@yahoo.com)

Chorus

----------------------------------------------------------------|
----------------------------------------------------------------|
----------------------------------------------------------------|
------------------2--2--2--5--4--2--4---------------------------|
------3--2--2--2-----------------------0-----2--0-----0--2--2---|
---0--------------------------------------3--------3------------|


----------------------------------------------------------|
----------------------------------------------------------|
----------------------------------------------------------|
------------2--2--2--5--4--2--4---------------------------|
---2-----2-----------------------0-----0--2--0------------|
------0-----------------------------3-----------3--2--0---|

Theme 1

----------------------------    -------------------------|
------------0---------------    ------------0------------|
------0--2-----2--0---------    ------0--2-----2--0--2---|
---2-----------------4--2---    ---2---------------------|
----------------------------    -------------------------|
----------------------------    -------------------------|

Transition

----------------------------------------------------------------------------|
----------------------------------------------------------------------------|
---4--4--4--4--2--2--2--2--0--0--0--------------2--2--2--2--0--0--0--0------|
------------------------------------4--4--4--4--------------------------4---|
----------------------------------------------------------------------------|
----------------------------------------------------------------------------|

Chorus
[ Tab from: http://www.guitaretab.com/p/pixies/14793.html ]
----------------------------------------------------------|
----------------------------------------------------------|
----------------------------------------------------------|
---4--------2--2--2--5--4--2--4---------------------------|
---------2-----------------------0-----2--0-----0--2--2---|
------0-----------------------------3--------3------------|

----------------------------------------------------------|
----------------------------------------------------------|
----------------------------------------------------------|
------------2--2--2--5--4--2--4---------------------------|
---2-----2-----------------------0-----0--2--0------------|
------0-----------------------------3-----------3--2--0---|

Theme 2

-------------------------------|
-------------------------------|
---5--4--2--0-----5--4--2--0---|
---------------2---------------|
-------------------------------|
-------------------------------|

Transition

----------------------------------------------------------------------------|
----------------------------------------------------------------------------|
---4--4--4--4--2--2--2--2--0--0--0--------------2--2--2--2--0--0--0--0------|
------------------------------------4--4--4--4--------------------------4---|
----------------------------------------------------------------------------|
----------------------------------------------------------------------------|

Solo/Outro

---------------------3--2--0--2---------------------------|
------------5--5--5---------------------------------------|
---4-----4-----------------------2--0--2--2--0--2--4--4---|
------2---------------------------------------------------|
----------------------------------------------------------|
----------------------------------------------------------|


---------------------3--2--0--2-----------------------------------|
------------5--5--5-----------------------------------------------|
---4-----4-----------------------2--0--2--4--2--0-----------------|
------2--------------------------------------------4--2-----------|
------------------------------------------------------------------|
---------------------------------------------------------3--20---|

------------------------x---|
------------------------x---|
---2--0--2--4--2--0-----x---|
---------------------4--2---|
------------------------2---|
------------------------0---|
Related for Cecilia Ann tab