Guitaretab - guitar tabs
Song name
# A B C D E F G H I J K L M N O P Q R S T U V W X Y Z
Home / P / Pixies / Debaser tab

Pixies - Debaser tab

------------------------------------------------------
			    Song: Debaser
Band: The Pixies
			From the album “Doolittle”
------------------------------------------------------
Tabbed by: bob6667
Email:bob6667@gmail.com

Jan. `08

Tuning: standard

Bass intro

G|-----------------|
D|-----------------|
A|1111----3333-----|
E|----1111----1111-|
Guitar 1

					Let ring
e|----10-------10-------10-------10-------------------|
B|1313--13-1313--13-1313-—13-1313—-13-----------------|
G|----------------------------------------------------|
D|----------------------------------------------------|
A|----------------------------------------------------|
E|----------------------------------------------------|
 |
 |                    Guitar 2
e|5-5-5-5--5-5-5-5---6-6-6-6—-8—-8—-8—-8--------------|
B|6-6-6-6--5-5-5-5---6-6-6-6—-8—-8--8—-8--------------|
G|7-7-7-7--6-6-6-6---7-7-7-7—-9—-9--9—-9--------------|
D|7-7-7-7--7-7-7-7---8-8-8-8—-10-10-10-10-------------|
A|5-5-5-5--7-7-7-7---8-8-8-8—-10-10-10-10-------------|
E|---------5-5-5-5---6-6-6-6—-8--8—-8—-8--------------|

Guitar 1
e|----------------------------------------------------|
B|----------------------------------------------------|
G|-------------------------------------3-2-3----------|
D|3----2--------3—----2-----3—-2-3-----------5--------|
A|---------3-------------5----------------------------|
E|----------------------------------------------------|
 |
 |                       Guitar 2
e|----------------------------------8--8--8--8--8--8--|
B|----------------------------------8--8--8--8--8--8--|
G|----------------------------------9--9--9--9--9--9--|
D|----------------------------------10-10-10-10-10-10-|
A|----------------------------------10-10-10-10-10-10-|
E|----------------------------------8--8--8--8--8--8--|


Guitar 1
e|----------------------------------------------------|
B|----------------------------------------------------|
G|-------------------------------------3-2-3----------|
D|3----2--------3—----2-----3—-2-3--------------------|
A|---------3-------------5---------------------3------|
E|----------------------------------------------------|
 |
 |                       Guitar 2
e|11xx------------—-55xx—-55xx—-66xx------------8—8-8-|
B|11xx—-33xx—-55xx—-66xx—-55xx—-66xx—-1010xx----8-8-8-|
G|22xx—-33xx—-55xx—-77xx—-66xx—-77xx—-1010xx----9-9-9-|
D|33xx—-33xx—-55xx—-77xx—-77xx—-88xx—-1010xx---101010-|
A|33xx—-11xx—-33xx—-55xx—-77xx—-88xx—-8-8-xx---101010-|
E|11xx------------------—-55xx—-66xx---------8--8-8-8-|


Verse

                      Guitar 1                   (x7)
e||----------------------------------------------------||
B||----------------------------------------------------||
G||*14-14-14-14-14-15-15-15-12-12-12-12-12-15-15-15-15*||
D||*--------------------------------------------------*||
A||----------------------------------------------------||
E||----------------------------------------------------||
 ||                                                                                      
                                     ||
 ||                      Guitar 2                                                        
                              ||
e||----------------------------------------------------||
B||----------------------------------------------------||
G||*-2-2-2----------xxx3-3------------------xxx3-3----*||
D||*-3-3-3----------xxx3-3---5-5-5----------xxx3-3----*||
A||--3-3-3----------xxx1-1---5-5-5—---------xxx1-1-----||
E||--1-1-1-------------------3-3-3---------------------||

					Chorus

	Guitar 1
e|----------------------------------------------------|
B|----------------------------------------------------|
G|--14-14-14-14-14-151515151515151515151515-----------|
D|----------------------------------------------------|
A|----------------------------------------------------|
E|----------------------------------------------------|
 |
 |					Guitar 2
e|------------------6-6-6-6-6-6-6—6-6-6-6-6----------|
B|------------------6-6-6-6-6-6-6-6-6-6-6-6----------|
G|--2-2-2-----------7-7-7-7-7-7-7-7-7-7-7-7----------|
D|--3-3-3-----------8-8-8-8-8-8-8-8-8-8-8-8----------|
A|--3-3-3-----------8-8-8-8-8-8-8-8-8-8-8-8----------|
E|--1-1-1-----------6-6-6-6-6-6-6-6-6-6-6-6----------|


Guitar 1
e|-----------------------------|
B|-----------------------------|
G|-----------------------------|
D|-----------------------------|
A|-----------------------------|
E|-----------------------------|
 |
 |					Guitar 2
e|---------8-8--xx-------------|
B|-1010-xx-8-8--xx-1010--------|
G|-1010-xx-9-9--xx-1010--------|
D|-1010-xx-1010-xx-1010--------|
A|-8-8--xx-1010-xx-8-8---------|
E|---------8-8--xx-------------|

Guitar 1

					Let ring
e|----10-------10-------10-------10-------------------|
B|1313--13-1313--13-1313-—13-1313—-13-----------------|
G|----------------------------------------------------|
D|----------------------------------------------------|
A|----------------------------------------------------|
E|----------------------------------------------------|
 |
 |                    Guitar 2
e|5-5-5-5--5-5-5-5---6-6-6-6—-8—-8—-8—-8--------------|
B|6-6-6-6--5-5-5-5---6-6-6-6—-8—-8--8—-8--------------|
G|7-7-7-7--6-6-6-6---7-7-7-7—-9—-9--9—-9--------------|
D|7-7-7-7--7-7-7-7---8-8-8-8—-10-10-10-10-------------|
A|5-5-5-5--7-7-7-7---8-8-8-8—-10-10-10-10-------------|
E|---------5-5-5-5---6-6-6-6—-8--8—-8—-8--------------|


Guitar 1
e|----------------------------------------------------|
B|----------------------------------------------------|
G|-------------------------------------3-2-3----------|
D|3----2--------3—----2-----3—-2-3-----------5--------|
A|---------3-------------5----------------------------|
E|----------------------------------------------------|
 |
 |                       Guitar 2
e|----------------------------------8--8--8--8--8--8--|
B|----------------------------------8--8--8--8--8--8--|
G|----------------------------------9--9--9--9--9--9--|
D|----------------------------------10-10-10-10-10-10-|
A|----------------------------------10-10-10-10-10-10-|
E|----------------------------------8--8--8--8--8--8--|

[ Tab from: http://www.guitaretab.com/p/pixies/14798.html ]
Guitar 1
e|----------------------------------------------------|
B|----------------------------------------------------|
G|-------------------------------------3-2-3----------|
D|3----2--------3—----2-----3—-2-3--------------------|
A|---------3-------------5---------------------3------|
E|----------------------------------------------------|
 |
 |                       Guitar 2
e|11xx------------—-55xx—-55xx—-66xx------------8—8-8-|
B|11xx—-33xx—-55xx—-66xx—-55xx—-66xx—-1010xx----8-8-8-|
G|22xx—-33xx—-55xx—-77xx—-66xx—-77xx—-1010xx----9-9-9-|
D|33xx—-33xx—-55xx—-77xx—-77xx—-88xx—-1010xx---101010-|
A|33xx—-11xx—-33xx—-55xx—-77xx—-88xx—-8-8-xx---101010-|
E|11xx------------------—-55xx—-66xx---------8--8-8-8-|


Verse

                      Guitar 1 (enters x5)           (x7)
e||----------------------------------------------------||
B||----------------------------------------------------||
G||*14-14-14-14-14-15-15-15-12-12-12-12-12-15-15-15-15*||
D||*--------------------------------------------------*||
A||----------------------------------------------------||
E||----------------------------------------------------||
 ||                                                    ||
 ||                      Guitar 2                      ||
e||----------------------------------------------------||
B||----------------------------------------------------||
G||*-2-2-2----------xxx3-3------------------xxx3-3----*||
D||*-3-3-3----------xxx3-3---5-5-5----------xxx3-3----*||
A||--3-3-3----------xxx1-1---5-5-5—---------xxx1-1-----||
E||--1-1-1-------------------3-3-3---------------------||

					Chorus

	Guitar 1
e|----------------------------------------------------|
B|----------------------------------------------------|
G|--14-14-14-14-14-151515151515151515151515-----------|
D|----------------------------------------------------|
A|----------------------------------------------------|
E|----------------------------------------------------|
 |
 |					Guitar 2
e|------------------6-6-6-6-6-6-6—6-6-6-6-6----------|
B|------------------6-6-6-6-6-6-6-6-6-6-6-6----------|
G|--2-2-2-----------7-7-7-7-7-7-7-7-7-7-7-7----------|
D|--3-3-3-----------8-8-8-8-8-8-8-8-8-8-8-8----------|
A|--3-3-3-----------8-8-8-8-8-8-8-8-8-8-8-8----------|
E|--1-1-1-----------6-6-6-6-6-6-6-6-6-6-6-6----------|


Guitar 1
e|-----------------------------|
B|-----------------------------|
G|-----------------------------|
D|-----------------------------|
A|-----------------------------|
E|-----------------------------|
 |
 |					Guitar 2
e|---------8-8--xx-------------|
B|-1010-xx-8-8--xx-1010--------|
G|-1010-xx-9-9--xx-1010--------|
D|-1010-xx-1010-xx-1010--------|
A|-8-8--xx-1010-xx-8-8---------|
E|---------8-8--xx-------------|

Guitar 1

					Let ring
e|----10-------10-------10-------10-------------------|
B|1313--13-1313--13-1313-—13-1313—-13-----------------|
G|----------------------------------------------------|
D|----------------------------------------------------|
A|----------------------------------------------------|
E|----------------------------------------------------|
 |
 |                    Guitar 2
e|5-5-5-5--5-5-5-5---6-6-6-6—-8—-8—-8—-8--------------|
B|6-6-6-6--5-5-5-5---6-6-6-6—-8—-8--8—-8--------------|
G|7-7-7-7--6-6-6-6---7-7-7-7—-9—-9--9—-9--------------|
D|7-7-7-7--7-7-7-7---8-8-8-8—-10-10-10-10-------------|
A|5-5-5-5--7-7-7-7---8-8-8-8—-10-10-10-10-------------|
E|---------5-5-5-5---6-6-6-6—-8--8—-8—-8--------------|


Guitar 1
e|----------------------------------------------------|
B|----------------------------------------------------|
G|-------------------------------------3-2-3----------|
D|3----2--------3—----2-----3—-2-3-----------5--------|
A|---------3-------------5----------------------------|
E|----------------------------------------------------|
 |
 |                       Guitar 2
e|----------------------------------8--8--8--8--8--8--|
B|----------------------------------8--8--8--8--8--8--|
G|----------------------------------9--9--9--9--9--9--|
D|----------------------------------10-10-10-10-10-10-|
A|----------------------------------10-10-10-10-10-10-|
E|----------------------------------8--8--8--8--8--8--|


Guitar 1
e|----------------------------------------------------|
B|----------------------------------------------------|
G|-------------------------------------3-2-3----------|
D|3----2--------3—----2-----3—-2-3--------------------|
A|---------3-------------5---------------------3------|
E|----------------------------------------------------|
 |
 |                       Guitar 2
e|11xx------------—-55xx—-55xx—-66xx------------8—8-8-|
B|11xx—-33xx—-55xx—-66xx—-55xx—-66xx—-1010xx----8-8-8-|
G|22xx—-33xx—-55xx—-77xx—-66xx—-77xx—-1010xx----9-9-9-|
D|33xx—-33xx—-55xx—-77xx—-77xx—-88xx—-1010xx---101010-|
A|33xx—-11xx—-33xx—-55xx—-77xx—-88xx—-8-8-xx---101010-|
E|11xx------------------—-55xx—-66xx---------8--8-8-8-|


					Outro

Guitar 2 plays
e|----------------------------------------------------|
B|-101010-1111-8888-1111------------------------------|
G|-101010-1010-7777-1010------------------------------|
D|-101010-1212-9999-1212------------------------------|
A|----------------------------------------------------|
E|----------------------------------------------------|
				Until the end

Guitar 1                     (x4)
e||----------------------------------------------------||
B||----------------------------------------------------||
G||*14-14-14-14-14-15-15-15-12-12-12-12-12-15-15-15-15*||
D||*--------------------------------------------------*||
A||----------------------------------------------------||
E||----------------------------------------------------||

e|-------------13-13-13-13-13-13-13-13-13-13-13-13-13-13--|
B|-------13-15--------------------------------------------|
G|-12-14--------------------------------------------------|
D|--------------------------------------------------------|
A|--------------------------------------------------------|
E|--------------------------------------------------------|


e|-13-13-13-13-13-13-13-13-13-13-13-13-13-13-13-13-13-|
B|----------------------------------------------------|
G|----------------------------------------------------|
D|----------------------------------------------------|
A|----------------------------------------------------|
E|----------------------------------------------------|


                                                      (x4)
e||----------------------------------------------------||
B||----------------------------------------------------||
G||*-14------------/15------\12-------------/15-------*||
D||*--------------------------------------------------*||
A||----------------------------------------------------||
E||----------------------------------------------------||

 End

    G.1
e|-----||
B|-----||
G|-14--||
D|-----||
A|-----||
E|-----||
 |     ||
 | G.2 ||
e|-1---||
B|-1---||
G|-2---||
D|-3---||
A|-3---||
E|-1---||

My first tab


| /  slide up
| \  slide down
| h  hammer-on
| p  pull-off
| ~  vibrato
| +  harmonic
| x  Mute note
Related for Debaser tab
×
Debaser