Guitaretab - guitar tabs
Song name
# A B C D E F G H I J K L M N O P Q R S T U V W X Y Z

Pixies - Dig For Fire tab

Dig For Fire
By jordAN (naked_marmaduke@hotmail.com)

Intro

1st Guitar

|-------------------------|------------------------|
|--------5----------------|--------5---------------|
|-2-2--6---6--2-4-2-4/6-4-|-2-2--6---6--2-4-2-4--2-|
|-------------------------|------------------------|
|-------------------------|------------------------|
|-------------------------|------------------------|

2nd Guitar comes in
        (x2)
|-------------------|-------------------0-|
|-------------------|---------------------|
|-6-6-6-4-4-4-2-2-2-|---------------------|
|-------------------|---------------------|
|-------------------|-4-4-4-2-2-2-0-0-0---|
|-------------------|---------------------| x1

        (x2)
|-------------------0-|-------------------0-|
|---------------------|---------------------|
|-6-6-6-4-4-4-2-2-2---|---------------------|
|---------------------|---------------------|
|---------------------|-4-4-4-2-2-2-0-0-0---|
|---------------------|---------------------| x2

Verse

1st Guitar

|---------------------|
|---------------------|
|-6-6-6--6-6--6-6-6-6-| Thats not exactly the rythm but u get what im saying
|---------------------|
|---------------------|
|---------------------|

2nd Guitar
[ Tab from: http://www.guitaretab.com/p/pixies/14799.html ]
|---------------|-0-|
|---------------|---|
|---------------|---|
|---------------|---|
|---0-2-2/4-2-0-|---|
|-2-------------|---|

Chorus

|-------------------------|
|-------------------------|
|-----------------7-7-7-7-|
|-2-2-2-2-4-4-4-4-7-7-7-7-|
|-2-2-2-2-4-4-4-4-5-5-5-5-|
|-0-0-0-0-2-2-2-2---------| Palm Mute for the last chorus

On the Fourth one the second guitar does this till the pre-verse

|-----------------|
|-----------------|
|-----------------|
|-----------------|
|-2/42-0-2/42-0-|
|-----------------|

Pre-Verse

|--------------------------|-------------------------|
|--------------------------|-------------------------|
|--------------------------|-------------------------|
|-7-7---4-4---2-2-2-2-4-4--|-7-7---4-4---------------|
|-7-7---4-4---2-2-2-2-4-4--|-7-7---4-4---4-4-2-2-0-0-|
|-5-5---2-2---0-0-0-0-2-2--|-5-5---2-2---------------|

Solo

|---------------------------------------------------------------------|
|-5-----------------5------------------5------------------------------|
|---7-6-2------2------7-6-2---------2----7-6-2------------------------|
|----------2-4---2----------2--4-2-------------2--4-2--2--4-2--2--4-2-|
|---------------------------------------------------------------------|
|---------------------------------------------------------------------|

Related for Dig For Fire tab