Song name
# A B C D E F G H I J K L M N O P Q R S T U V W X Y Z

Pixies - Gigantic tab

-------------------------------------------------------------------------------
			     Gigantic - Pixies
-------------------------------------------------------------------------------
Tabbed by: MikeV
Email:EdarotagV335@yahoo.com

Tuning: Standard

Chorus/Outro                                 -Verse
e|----------------------------------------|-------------|
B|----------------------------------------|-------------|
G|----------77--99------444-555/--77------|-------------|
D|--555-----77--99--0---444-555/--77--0---|--5~---------|
A|--555-----55/-77--0---222-333/--55--0---|--5~---------|
E|--333-----------------------------------|--3~---------|

PreChorus - Vary between the mutes and chords   2nd Guitar - Vary between picks, bends, and vibratos
e|--------------------------------------------|-----------------------|
B|--------------------------------------------|-----------------------|
G|--------------------------------------------|--12br--br-12-br-------|
D|--17x17-1717-x-17-1717x--x-17-17------------|-----------------------|
A|--17x17-1717-x-17-1717x--x-17-17------------|-----------------------|
E|--15x15-1515-x-15-1515x--x-15-15------------|-----------------------|

Solo - Same as the chorus, but slide more and pick the higher notes on the power chords
e|--------------------------------------------------|
B|------------------------------------------7-------|
G|--4----/--7-----9--------4----/---5-----7---------|
D|--5-xx-/7~~~7/9---9-0----4-xx-/-5~~~5/7-----------|
A|--5-xx-/5~~~~~------0----2-xx-/-3~~~~-------------|
E|--3-xx--------------------------------------------|

2nd Guitar Outro - Repeat riff over and over
e|------------------------------------|
B|------------------------------------|
G|------------------------------------|
D|--------------/14------12-----------|
A|-----10-------/14-(x8)-12-(x8)------|
E|-----10-(x16)-----------------------|

| /  slide up or down
| ~  let note ring
| x  Mute note
===============================================================================
Tap to rate this tab
# A B C D E F G H I J K L M N O P Q R S T U V W X Y Z