Song name
# A B C D E F G H I J K L M N O P Q R S T U V W X Y Z

Pixies - Gouge Away tab

THE PIXIES
GOUGE AWAY
DOOLITTLE.
CHORUS1.
AT 00.15 SECONDS PLAY THIS FOR THE RHYTHM GUITAR.
------------------------------------------------------------------|
------------------------------------------------------------------|
------------------------------------------------------------------|
------------------------------------------------------------------|
--12--12--12--12--12--12--12--12--14--14--14--14--14--14--14--14--|
--12--12--12--12--12--12--12--12--14--14--14--14--14--14--14--14--|

----------------------------------|
----------------------------------|
----------------------------------|
----------------------------------|
--14--14--14--14--14--14--14--14--|
----------------------------------| PLAY THIS ON RHYTHM UNTIL 00.28 SECONDS.
THEN THE LEAD KICKS IN AND IF YOU PLAY THE LEAD GUITAR PLAY THIS
----------------------------------------------------------|
----------------------------------------------------------|
----------------------------------------------------------|
-----10______--9 BEND UP--9 BEND BACK DOWN--9--11_______--|
--11------------------------------------------------------|
----------------------------------------------------------|
VERSE 1. JUST LEAD.
-----------------------------------------------------------------------|
-----------------------------------------------------------------------|
--------------------------------9--9--9--9--9--------------------------|
--6--6--6--6--6--9--9--9--9--9--9--9--9--9--9--------------------------|
--6--6--6--6--6--9--9--9--9--9--7--7--7--7--7--6--6--6--6--6--6--6--6--|
--4--4--4--4--4--7--7--7--7--7-----------------4--4--4--4--4--4--4--4--|

---------------------------------------------|
---------------------------------------------|
--9--9--9--9--9------------------------------|
--9--9--9--9--9--6---------------------------|
--7--7--7--7--7--6---------------------------|
-----------------4_________________________--|
CHORUS AGAIN AT 1.03 PLAY RHYTHM UNDER THE LEAD AT 1.07 AND 1.17.
LEAD AT 1.07
--7--6-----------------|
--------7--6_________--|
-----------------------|
-----------------------|
-----------------------|
-----------------------|
THEN AT 1.17 PLAY THE FIRST LEAD BIT, THE PLAY VERSE 2 THE SAME AS NUMBER ONE. THEN PLAY 
LEAD BIT AT 1.55 THEN THE LAST VERSE THEN THE LAST CHORUS PLAY THIS
------------------------------------------------------------------------|
------------------------------------------------------------------------|
--------------------------------9--9--9--9--9---------------------------|
--6--6--6--6--6--9--9--9--9--9--9--9--9--9--9--6--6--6--6--6--6--6--6---|
--6--6--6--6--6--9--9--9--9--9--7--7--7--7--7--6--6--6--6--6--6--6--6---|
--4--4--4--4--4--7--7--7--7--7-----------------4--4--4--4--4--4--4--4---|

-----------------|
-----------------|
--9--9--9--9--9--|
--9--9--9--9--9--|
--7--7--7--7--7--|
-----------------|
THEN THE BIT WHERE YOU PLAY IT ON YOUR OWN AT 1.23 PLAY IT TWICE AND END ON
-----------|
-----------|
-----------|
--6--------|
--6--------|
--4______--

TAB DONE BY DROPE1000.
Tap to rate this tab
 
# A B C D E F G H I J K L M N O P Q R S T U V W X Y Z