Song name
# A B C D E F G H I J K L M N O P Q R S T U V W X Y Z

Pixies - Letter To Memphis tab

Pixies
Letter to Memphis
tabbed from "BBC Sessions"
by Fred Lyth (fredlyth187@hotmail.com)
07/05/06

Lead Guitar (Other tab is rythm, didn't really feel like synchronising them, if you have 
time then feel free to.)

Riff
e-10h11p10h11p10h11p10h11p10h11p10h11p10h11p10h11---------------|
B---------------------------------------------------------------|
G---------------------------------------------------------------|
D---------------------------------------------------------------|
A---------------------------------------------------------------|
E---------------------------------------------------------------|

Intro
e----------------------------------------------------------------|
B----------------------------------------------------------------|
G-8--8-8-8-7--3-5~~~-------8--8-8-8-10-8---5--5-3-5-5------------|
D----------------------------------------------------------------|
A----------------------------------------------------------------|
E----------------------------------------------------------------|

e---------------------------------------------------------------|
B---------------------------------------------------------------|
G---8--8-8-8-10-8-10------8--8-8-8-10-8---5--5-3-5-8-5----------|
D---------------------------------------------------------------|
A---------------------------------------------------------------|
E---------------------------------------------------------------|

e---------------------------------------------------------------|
B---------------------------------------------------------------|
G-8--8-8-8-10-8--12-13-15-15------------------------------------|
D---------------------------------------------------------------|
A---------------------------------------------------------------|
E---------------------------------------------------------------|

Chorus
e---------------------------------------------------------------|
B---------------------------------------------------------------|
G-8---12--10-8--------------------------------------------------|
D---------------------------------------------------------------|
A---------------------------------------------------------------|
E---------------------------------------------------------------|

Verse
e---------------------------------------------------------------|
B---------------------------------------------------------------|
G-10b11--8h10p8-5-5---------------------------------------------|
D---------------------------------------------------------------|
A---------------------------------------------------------------|
E---------------------------------------------------------------|

e---------------------------------------------------------------|
B--------------12b13--------------------------------------------|
G-10b11r10b11--10-10b11r10-8------------------------------------|
D---------------------------------------------------------------|
A---------------------------------------------------------------|
E---------------------------------------------------------------|

e-------------10b11----------------------------------------------|
B----------------------------------------------------------------|
G-8--10b11-------------------------------------------------------|
D----------------------------------------------------------------|
A----------------------------------------------------------------|
E----------------------------------------------------------------|

Order:
(Riff -repeat as necessary)
(Intro)
(Verse -Do not play)
(Chorus -repeat as necessary)
(Verse)
(Riff -repeat as necessary)
(Chorus -repeat as necessary)

This is my first tab. I'm pretty sure it's all the right notes, but the strings may be 
Any corrections, e-mail me: fredlyth187@hotmail.com.
Tap to rate this tab
# A B C D E F G H I J K L M N O P Q R S T U V W X Y Z