Song name
# A B C D E F G H I J K L M N O P Q R S T U V W X Y Z

Pixies - Planet Of Sound tab

Since the other tabs for Planet of Sound were out in places Ive put together better
I got a lot of these from the Live Pixies DVD, so Im fairly sure that most of the
is correct. The bendy thing at the end of the chorus is probably a bit out since I cant 
it to sound quite right, but that could be due to lack of skill and/or the fact that my
is a piece of shit.


e|-------------------------------------|
B|----15b/13-----13b-------------------|
G|-------------------------------------|
D|-------------------------------------|
A|-------------------------------------|
E|-------------------------------------|

Bass:
G|---------------------------------------------------------------------------------|
D|---------------------------------------------------------------------------------|
A|---------------------4-4-4-4-4-4-4--------------------4-4-4-4-4-4-4--------------|
E|-2-2-2-2-2-2-2-2------------------2-2-2-2-2-2-2-2--------------------------------|

The Xs mean mute straight after playing the strings
e|----------------------------------------------------------|
B|----------------------------------------------------------|
G|----1x-1x----1x----1x-1x----------------------------------|
D|----1x-1x----1x----1x-1x----------------------------------|
A|----1x-1x----1x----1x-1x----------------------------------|
E|----1x-1x----1x----1x-1x----------------------------------|

One fine day in my odd past,
I picked me up a transmission.
I turned the fission ignition,
Went looking for the broadcast.
And when I first touched the ground,
They simply told me to leave,
Was kinda hard to believe,
Cos there was no-one around

Chorus:
e|--------5-5-5-5-5-5---2----------------------------------|
B|-------5-5-5-5-5-5---3-----------------------------------|
G|-------6-6-6-6-6-6---2-----------------------------------|
D|-------7-7-7-7-7-7---05b-4b-3/2-------------------------|   x4
A|-------7-7-7-7-7-7---------------------------------------|
E|-------5-5-5-5-5-5---------------------------------------|

This aint the planet of sound
This aint the planet of sound
This aint the planet of sound
This aint the planet of sound

Small bit leading back to chorus
e|------------------------------|
B|------------------------------|
G|-----3/15/7-------------------|
D|------------------------------|
A|------------------------------|
E|------------------------------|

e|------------------------------------------------------------------|
B|-15b---15b-15b-15b-15b-15b-15b-----------15b-15b-15b-15b-15b-15b--|
G|------------------------------------------------------------------|
D|------------------------------------------------------------------|
A|------------------------------------------------------------------|
E|------------------------------------------------------------------|

I had a talented wine,
That land of classical gas
And on the planet of glass,
They sent me skipping through time.
I got to somewhere renowned,
For canals and the colour of red.
Lots of guys just shook their heads,
Reverberate to resound

Theres a sound of milk bottles clinking just before the reverberate to resound bit.
do this you will need two or more milk bottles.

Chorus:
e|--------5-5-5-5-5-5---2----------------------------------|
B|-------5-5-5-5-5-5---3-----------------------------------|
G|-------6-6-6-6-6-6---2-----------------------------------|
D|-------7-7-7-7-7-7---05b-4b-3/2-------------------------|
A|-------7-7-7-7-7-7---------------------------------------|
E|-------5-5-5-5-5-5---------------------------------------|

This aint the planet of sound
This aint the planet of sound
This aint the planet of sound
This aint the planet of sound
This aint no Rock n Roll town,
This aint no fucking around
This aint the planet of sound

Solo:
e|----------------------------------------------------------------------|
B|--------------10-----------------------------------10-----------------|
G|---7-7-10-7-----7-7-10-7--12b/7---7-7-10-7-----7-7-10-712b h13p12/7--|
D|----------------------------------------------------------------------|
A|----------------------------------------------------------------------|
E|----------------------------------------------------------------------|

e|----------------------------------------------------------------------|
B|--------------10-----------------------------------10-----------------|
G|---7-7-10-7-----7-7-10-7--12b/7---7-7-10-7-----7-7-10-712b h13p12/7--|
D|----------------------------------------------------------------------|
A|----------------------------------------------------------------------|
E|----------------------------------------------------------------------|

e|------------------------------------------------------------------|
B|------------------11----11----11----11----11----------------------|
G|---7-10-12-12b---12b--12b--12b---12b------------------------------|
D|------------------------------------------------------------------|
A|------------------------------------------------------------------|
E|------------------------------------------------------------------|

I met a guy in a rover,
He said its one more over,
Its just there where you found
This aint the planet of sound.

Repeat chorus x20

End
e|----------------------------------------------------------------------------------|
B|----------------------------------------------------------------------------------|
G|----1x-1x-1x----1x-1x-1x----1x-1x--1x--1x--1x--1x --------------------------------|
D|----1x-1x-1x----1x-1x-1x----1x-1x--1x--1x--1x--1x --------------------------------|
A|----1x-1x-1x----1x-1x-1x----1x-1x--1x--1x--1x--1x --------------------------------|
E|----1x-1x-1x----1x-1x-1x----1x-1x--1x--1x--1x--1x --------------------------------|

Any corrections, praise etc,  petiebarry@hotmail.com
Tap to rate this tab
# A B C D E F G H I J K L M N O P Q R S T U V W X Y Z