Song name
# A B C D E F G H I J K L M N O P Q R S T U V W X Y Z

Pixies - Here Comes Your Man tab

The Pixies - Here Comes Your Man

[INTRO] (chords on top, lead on bottom)
                    G          A            D
E-----------------------------------------------|
B-----------------------------------------------|
G-----------------------------------------------|  played three times
D--0--0--4--4--5----------------------0--2--0---|
A-----------------0------2--0--0--4-------------|
E--------------------3--------------------------|

[VERSE]
D                  A
 Outside there's a box car waiting
Em           G         D
 Outside the family stew
            A
 Out by the fire breathing
Em          G                    D
 Outside we wait 'til face turns blue
            A
 I know the nervous walking
Em          G              D
 I know the dirty beard hangs
            A
 Out by the box car waiting
Em               G
 Take me away to nowhere plains

[BRIDGE]
Bm                  G                 A
 There is a wait so long (so long, so long)
                    D     G
 You never wait soooo looong

[CHORUS] (intro lead part played over chorus)
 A               D   G
 Here comes your man
 A               D   G
 Here comes your man
 A               D
 Here comes your man

[VERSE 2] same chords (D, A, Em, G)
 Joey plays:
E-------------------------------|------------------------------|
B--7--5----------------------5--|--7--5---------7--7--5-----5--|
G--------7---7--6--6--6-\-7-----|--------7---7-----------7-----|
D-------------------------------|------------------------------|
A-------------------------------|------------------------------|
E-------------------------------|------------------------------|

 Big shake on the box car moving
 Big shake to the land that's falling Down
 Is a wind makes a palm stop blowing
 A big, big stone fall and break my crown

[BRIDGE]
Bm                  G                 A
 There is a wait so long (so long, so long)
                    D     G
 You never wait soooo looong

[CHORUS] (intro lead part played over chorus)
 A               D   G
 Here comes your man
 A               D   G
 Here comes your man
 A               D   G
 Here comes your man
 A               D
 Here comes your man

D  A  Em  G  (alot of times) there are two other lead guitars on this part.
                             Iíll get around to tabbing that sometime.

(BRIDGE)

(CHORUS) <-- play over and over til end of the song

end on D
_____________________________________________________________________________
this is what Joey plays during the first verse:
  D                  A                    Em                 G
E-----------------|-------------------|-----------------|-------------------|
B---------7-------|----------14-------|---------8-------|--------12---------|
G----7-------7----|-----14-------14---|----9--------9---|----12------12-----|
D-------7-------7-|-------14-------14-|------9--------9-|------12------12---|
A-5---------------|-\12---------------|-7---------------|-10----------------|
E-----------------|-------------------|-----------------|-------------------|

Note: Frank plays open chords. Not the barre chords that Joey plays above.


  And this is what Joey does on the bridge:
E-2-2-2-2-2-2-2-2--3-3-3-3-3-3-3-3--5-5-5-5-5-5-5-5--10-10-10-10-10-10-10-10-|
B-3-3-3-3-3-3-3-3--3-3-3-3-3-3-3-3--5-5-5-5-5-5-5-5--10-10-10-10-10-10-10-10-|
G----------------------------------------------------------------------------|
 There is a wait so long....

\ = slide
Tap to rate this tab
 
# A B C D E F G H I J K L M N O P Q R S T U V W X Y Z