Pixies - Something Against You tab

-------------------------------------------------------------------------------
			     SOMETHING AGAINST YOU - Pixies
-------------------------------------------------------------------------------
Tabbed by: ZiR23
Email: z1r_23@hotmail.com

Tuning: STANDARD

**Because of the simple nature of the entire song, i've only tabbed the changes in the song.
When certain section repeat, it should be easy to refer back to that part of the song. **



**bend each chord slightly each time.( ~ signifies the bent chord)**

Guitar 1:
|-7~--x-6~--6-x--4~--4-x-6~--6-x---5/7-7-x--6~--6-x--4~--4-x--6~--6------|
|-7~--x-7~--7-x--4~--4-x-7~--7-x---5/7-7-x--7~--7-x--4~--4-x--7~--7------|
|-8~--x-8~--8-x--5~--5-x-8~--8-x---6/8-8-x--8~--8-x--5~--5-x--8~--8------|
|-9~--x-8~--8-x--6~--6-x-8~--8-x---7/9-9-x--8~--8-x--6~--6-x--8~--8------|
|-9~--x-6~--6-x--6~--6-x-6~--6-x---7/9-9-x--6~--6-x--6~--6-x--6~--6------|
|-7~--x-6~--6-x--4~--4-x-6~--6-x---5/7-7-x--6~--6-x--4~--4-x--6~--6------|

e|-0-0-7-7-x-6~--6-x--4~--4-x--6~--6-x--5/7-7-x--6~--6-x--4~-4-x--6~--6--|
B|-0-0-7-7-x-7~--7-x--4~--4-x--7~--7-x--5/7-7-x--7~--7-x--4~-4-x--7~--7--|
G|-0-0-8-8-x-8~--8-x--5~--5-x--8~--8-x--6/8-8-x--8~--8-x--5~-5-x--8~--8--| REPEAT until
D|-0-0-9-9-x-8~--8-x--6~--6-x--8~--8-x--7/9-9-x--8~--8-x--6~-6-x--8~--8--| the lyrics 
come in....
A|-0-0-9-9-x-6~--6-x--6~--6-x--6~--6-x--7/9-9-x--6~--6-x--6~-6-x--6~--6--|
E|-0-0-7-7-x-6~--6-x--4~--4-x--6~--6-x--5/7-7-x--6~--6-x--4~-4-x--6~--6--|
   ^ ^ ^ ^
  very fast

Guitar 2: (after drums join in) volume gradually rising... ( ~ means let note ring)
e|---------------------------------------------------------------------------|
B|---------------------------------------------------------------------------|
G|------8~~~~~~-----------------------------------------8~~------------------|
D|------x-----------------------------------------------x--------------------|
A|------6~~~~~~-----------------------------------------6~~------------------|
E|---------------------------------------------------------------------------|

once bass join in: (tab does not show exact # of times to repeat chord....just listen 
for the changes)
e|----------------------------------------|
B|----------------------------------------|
G|--8--88--8888888-9-9\8--88888888--------|  Keep repeating until lyrics....
D|--x--xx--xxxxxxx-x-x\x--xxxxxxxx--------|
A|--6--66--6666666-7-7\6--66666666--------|
E|----------------------------------------|



"i've got....something against you!"
guitar 1 and 2
|-----------------------------------7-7-x--6-6-x--4-4-x--6-6--|
|-----------------------------------7-7-x--7-7-x--4-4-x--7-7--|
|-----------------------------------8-8-x--8-8-x--5-5-x--8-8--|
|4-4-4-4-4-4-4-4-2-2-2-2-2-2-2-2----9-9-x--8-8-x--6-6-x--8-8--| REPEAT 2x
|4-4-4-4-4-4-4-4-2-2-2-2-2-2-2-2----9-9-x--6-6-x--6-6-x--6-6--|
|2-2-2-2-2-2-2-2-0-0-0-0-0-0-0-0----7-7-x--6-6-x--4-4-x--6-6--|




guitar 1 interlude....
|----------------------------------|
|----------------------------------|
|----------------------------------|
|----------------------------------| REPEAT 3x
|------6-6-6-6-6---------6-6-6-6-6-|
|7-7-7-----------x-4-4-4-----------|
|
|
|Guitar 2 interlude....
|-----------11----------11----------11----------11---|
|-----12b13----12-12b13----12-12b13----12-12b13----12|
|----------------------------------------------------| play this once
|----------------------------------------------------| after guitar 1 plays interlude 2x
|----------------------------------------------------|
|----------------------------------------------------|



play the part for "i've got something against you!" 2x

END OF SONG.

thanks for looking and PLEASE RATE!


************************************
Tap to rate this tab
 
# A B C D E F G H I J K L M N O P Q R S T U V W X Y Z