Song name
# A B C D E F G H I J K L M N O P Q R S T U V W X Y Z

Pixies - Levitate Me tab

-------------------------------------------------------------------------------
			     LEVITATE ME - Pixies
-------------------------------------------------------------------------------
Tabbed by: Liquid Filth
Email: liquid_filth@hotmail.com

Tuning:EADGBe

Verse/Elevator Lady: 
e|------------------|--------------------------------------------------------|
B|------------------|--------------------------------------------------------|
G|------------------|--------------------------------------------------------|
D|-2----------------|-6-6-6-66-7-7-7-77--------------------------------------|
A|-2----------------|-6-6-6-66-7-7-7-77--------------------------------------|
E|-0--(strum)-------|-4-4-4-44-5-5-5-55--------------------------------------|


 If all in all is true (x3)  If all is true...
e|-------------------------|-------------------------------------------------|
B|-------------------------|-------------------------------------------------|
G|-------------------6-6-6-|-------------------------------------------------|
D|-9-9-9-99-7-7-7-77-6-6-6-|-4-----------------------------------------------|
A|-9-9-9-99-7-7-7-77-4-4-4-|-4-----------------------------------------------|
E|-7-7-7-77-5-5-5-55-------|-2--(strum)--------------------------------------|


  Won't you please fawn/run over me?
e|---------------------------------------------------------------------------|
B|---------------------------------------------------------------------------|
G|----------------------------9-9-9-9-9-9-9-9--------------------------------|
D|-10-10-10-1010-9-9-9-99-----9-9-9-9-9-9-9-9--------------------------------|
A|-10-10-10-1010-9-9-9-99-----7-7-7-7-7-7-7-7--------------------------------|
E|-8--8--8--8-8--7-7-7-77----------------------------------------------------|


Give me help
Give me help
You can... levitate me

Then take off them rings
Off them hose
Levitate me

Higher place
Levitate me

Elevator lady (4x)
Lady levitate me

If all in all is true (3x)
If all is true
Won't you please fawn over me (4x)

Shaky shake... Shakey
Levitate me

Come on Pilgrim
You know he loves you
Levitate me

Higer place
Levitate me

He kicked a baby
Elevator lady (3x)
Lady
Elevator Lady
Lady. Lady. Levitate me

If all in all is true (3x)
If all is true
Won't you please run over me (5x)
Me, me, me, me, ... 


I used this live performace to base this off http://www.youtube.com/watch?v=0TJZ0eSb-b8

************************************

| /   slide up
| \   slide down
| h   hammer-on
| p   pull-off
| ~   vibrato
| +   harmonic
| x   Mute note
| b   Bend
| pb  Pre-bend
| br  Bend release
| pbr Pre-bend release
| brb Bend release bend

************************************
Tap to rate this tab
 
# A B C D E F G H I J K L M N O P Q R S T U V W X Y Z