Song name
# A B C D E F G H I J K L M N O P Q R S T U V W X Y Z

Pixies - Hey tab

                                            HEY
                                         The Pixies
Album : Doolittle
Tabbed by Skidy 8D

Black Francis :

VERSE

e|------2------2------|
B|------3--------3----|
G|--2h4----2-4-----2--|
D|--------------------| x ?
A|--------------------|
E|--------------------|


e|------2------2------|
B|------2--------2----|
G|--2h3----2-3-----2--|
D|--------------------| Sometimes
A|--------------------|
E|--------------------|


REFRAINS

G Em Bm En boucle

__________________________________________________________________________________________________

Joey Santiago : (He start at 0:52)

REFRAINS

e|-----------|
B|--13b(15)--|
G|-----------|
D|-----------| En boucle
A|-----------|
E|-----------|

SOLO

e|-------------------------------------------------------------------|
B|-------------------------------------------------------------------|
G|--7\4--2------------6\2--------------------------------------------|
D|---------4--2h3h4--------4-2-2h3h4---2-0------------2-0------------| x2
A|-----------------------------------------2-0-0h1h2------2-0-0h1h2--|
E|-------------------------------------------------------------------|

e|---------------------------10-10-7-----------------10-10-7-------------------------|
B|-----------------------------------10-----7-5h6h7----------10-7-5h6h7-------7------|
G|--7-----7-9-10b-----7-9-11--------------------------------------------------9b(11)-|
D|-----------------------------------------------------------------------------------|
A|-----------------------------------------------------------------------------------|
E|-----------------------------------------------------------------------------------|

VERSE 2

e|------------------------------------------------------------------------------------|
B|------------------------------------------------------------------------------------|
G|------------------------------------------------------------------------------------|
D|--5-5-5-5-5-5-5-5-5-5-5-5-4-4-4-4-4-4-4-4-4-4-4-4-----------------------------------| x2
A|--------------------------------------------------5-5-5-5-5-5-5-5-5-5-5-5-5-5-5-5---|
E|------------------------------------------------------------------------------------|

__________________________________________________________________________________________________

Kim Deal :

INTRO

G|-----------------------------------------------------------|
D|-----------------------------------------------------------|
A|-----------0-1-2--2--2-3-4-5--5--5-------------------------|
E|--2--------------------------------0-2-3--3--3-0-1-2--2--2-|

VERSE

G|-----------------------------------------------------------|
D|-----------------------------------------------------------|
A|----------0-1-2--2--2-3-4-5--5--5--------------------------|
E|--2--2--2-------------------------0-2-3--3--3-0-1-2--2--2--|

REFRAINS

G|---------------------------------------------------|
D|---------------------------------------------------|
A|----------------------------------2-2-2-2-2-2-2-2--|
E|--3-3-3-3-3-3-3-3-0-0-0-0-0-0-0-0------------------|
Tap to rate this tab
 
# A B C D E F G H I J K L M N O P Q R S T U V W X Y Z