Song name
# A B C D E F G H I J K L M N O P Q R S T U V W X Y Z

Pixies - La La Love You tab

 Band: Pixies
 Song: La La Love You
 Acoustic Guitar Tab

 ----------------| 
 --2-2-2-2-2-2-2-| 
 --2-2-2-2-2-2-2-| 
 --2-2-2-2-2-2-2-| 
 --0-0-0-0-0-0-0-| 
 ----------------|

 -2-2-2-2-2-2-2-2-----------------------------2-2-2-2-|
 -3-3-3-3-3-3-3-3--2-2-2-2--0-0-0-0--4-4-4-4--3-3-3-3-|
 -2-2-2-2-2-2-2-2--2-2-2-2--1-1-1-1--4-4-4-4--2-2-2-2-|
 -0-0-0-0-0-0-0-0--2-2-2-2--2-2-2-2--4-4-4-4--0-0-0-0-|
 ------------------0-0-0-0--2-2-2-2--2-2-2-2----------|
 -----------------------------------------------------|repeat

 
 -2-2-2-2--------------------------------------2-2-2-2-2-2----|
 -3-3-3-3--2-2-2-2--0-0-0-0-----------2-2-2-2--3-3-3-3-3-3----|
 -2-2-2-2--2-2-2-2--1-1-1-1--0-0-0-0--2-2-2-2--2-2-2-2-2-2----|
 -0-0-0-0--2-2-2-2--2-2-2-2--0-0-0-0--2-2-2-2--0-0-0-0-0-0--2-|
 ----------0-0-0-0--2-2-2-2--2-2-2-2--0-0-0-0---------------2-|
 ----------------------------3-3-3-3------------------------0-|

 -----------------------------------------|
 -----------------------------------------|
 -----------------7-7-7-7-4-4-4-4---------|
 -4-4-4-4-7-7-7-7-7-7-7-7-4-4-4-4-7-7-7-7-|
 -4-4-4-4-7-7-7-7-5-5-5-5-2-2-2-2-7-7-7-7-|
 -2-2-2-2-5-5-5-5-----------------5-5-5-5-|

 -2-2-2-2-2-2-2-2-----------------------------2-2-2-2-|
 -3-3-3-3-3-3-3-3--2-2-2-2--0-0-0-0--4-4-4-4--3-3-3-3-|
 -2-2-2-2-2-2-2-2--2-2-2-2--1-1-1-1--4-4-4-4--2-2-2-2-|
 -0-0-0-0-0-0-0-0--2-2-2-2--2-2-2-2--4-4-4-4--0-0-0-0-|
 ------------------0-0-0-0--2-2-2-2--2-2-2-2----------|
 -----------------------------------------------------|repeat

 
 -2-2-2-2----------------------------------------------------|
 -3-3-3-3--2-2-2-2--0-0-0-0----------------------------------|
 -2-2-2-2--2-2-2-2--1-1-1-1--0-0-0-0-0-0-0-0-0-0-0-0-0-0-0-0-|
 -0-0-0-0--2-2-2-2--2-2-2-2--0-0-0-0-0-0-0-0-0-0-0-0-0-0-0-0-|
 ----------0-0-0-0--2-2-2-2--2-2-2-2-2-2-2-2-2-2-2-2-2-2-2-2-|
 ----------------------------3-3-3-3-3-3-3-3-3-3-3-3-3-3-3-3-|

 -2-2-2-2---------------------------|
 -3-3-3-3--4-4-4-4--2-2-2-2-2-2-2-2-|
 -2-2-2-2--4-4-4-4--2-2-2-2-2-2-2-2-|
 -0-0-0-0--4-4-4-4--2-2-2-2-2-2-2-2-|
 ----------2-2-2-2--0-0-0-0-0-0-0-0-|
 -----------------------------------|

 -2-2-2-2-2-2-2-2-----------------------------2-2-2-2-|
 -3-3-3-3-3-3-3-3--2-2-2-2--0-0-0-0--4-4-4-4--3-3-3-3-|
 -2-2-2-2-2-2-2-2--2-2-2-2--1-1-1-1--4-4-4-4--2-2-2-2-|
 -0-0-0-0-0-0-0-0--2-2-2-2--2-2-2-2--4-4-4-4--0-0-0-0-|
 ------------------0-0-0-0--2-2-2-2--2-2-2-2----------|
 -----------------------------------------------------|repeat

 
 -2-2-2-2--------------------------------------2-2-2-2-2-2----|
 -3-3-3-3--2-2-2-2--0-0-0-0-----------2-2-2-2--3-3-3-3-3-3----|
 -2-2-2-2--2-2-2-2--1-1-1-1--0-0-0-0--2-2-2-2--2-2-2-2-2-2----|
 -0-0-0-0--2-2-2-2--2-2-2-2--0-0-0-0--2-2-2-2--0-0-0-0-0-0--2-|
 ----------0-0-0-0--2-2-2-2--2-2-2-2--0-0-0-0---------------2-|
 ----------------------------3-3-3-3------------------------0-|

 
 -----------------------------------------------------------------|
 -----------------------------------------------------------------|
 -----------------7-7-7-7-4-4-4-4---------7-7-7-7-4-4-4-4-2-2-2-2-|
 -4-4-4-4-7-7-7-7-7-7-7-7-4-4-4-4-7-7-7-7-7-7-7-7-4-4-4-4-2-2-2-2-|
 -4-4-4-4-7-7-7-7-5-5-5-5-2-2-2-2-7-7-7-7-5-5-5-5-2-2-2-2-0-0-0-0-|
 -2-2-2-2-5-5-5-5-----------------5-5-5-5-------------------------|


 -2-2-2-2-2-2-2-2-----------------------------2-2-2-2-|
 -3-3-3-3-3-3-3-3--2-2-2-2--0-0-0-0--4-4-4-4--3-3-3-3-|
 -2-2-2-2-2-2-2-2--2-2-2-2--1-1-1-1--4-4-4-4--2-2-2-2-|
 -0-0-0-0-0-0-0-0--2-2-2-2--2-2-2-2--4-4-4-4--0-0-0-0-|
 ------------------0-0-0-0--2-2-2-2--2-2-2-2----------|
 -----------------------------------------------------|repeat

 --2-2-2-22-----------------------|
 --3-3-3-33--2-2-2-22--0-0-0-0--4-|
 --2-2-2-22--2-2-2-22--1-1-1-1--4-|
 --0-0-0-00--2-2-2-22--2-2-2-1--4-|
 ------------0-0-0-00--2-2-2-2--2-|
 ---------------------------------|
Tap to rate this tab
# A B C D E F G H I J K L M N O P Q R S T U V W X Y Z