Song name
# A B C D E F G H I J K L M N O P Q R S T U V W X Y Z

Pixies - Here Comes Your Man tab

Intro:
---------------------------------------|
---------------------------------------|
---------------------------------------|
-0-0-4-4-5-----------------------------|
-----------0-----2-0-0-4-5-2-----------|
-------------3-------------------------|

--------2----------------9----------------3---------------7--------|
----3-------3-------10-------10-------5-------5-------8-------8----|
--2---2---2---2---9----9---9----9---4---4---4---4---7---7---7---7--|
-------------------------------------------------------------------|
-------------------------------------------------------------------|
-------------------------------------------------------------------|repeat

-2-2-2-2-2-2-2-2--3-3-3-3-3-3-3-3--0-0-0-0-0-0-0-0--10-10-10-10-10-10-10-10-|
-3-3-3-3-3-3-3-3--3-3-3-3-3-3-3-3--2-2-2-2-2-2-2-2--10-10-10-10-10-10-10-10-|
----------------------------------------------------------------------------|
----------------------------------------------------------------------------|
----------------------------------------------------------------------------|
----------------------------------------------------------------------------|


---------------------------|
---------------------------|
---------------------------|
---------------------------|
-----2-0-0-4-5-2-----------|
--3------------------------|

---------------------------------------|
---------------------------------------|
---------------------------------------|
-0-0-4-4-5-----------------------------|
-----------0-----2-0-0-4-5-2-----------|
-------------3-------------------------|repeat

Solo
--------------------------------------------------|
--7-5-----------------5--7-5------7-7-5---5-------|
------7--7-6-6-6-6--7--------7--7-------7---------|
--------------------------------------------------|
--------------------------------------------------|
--------------------------------------------------|repeat


-2-2-2-2-2-2-2-2--3-3-3-3-3-3-3-3--0-0-0-0-0-0-0-0--10-10-10-10-10-10-10-10-|
-3-3-3-3-3-3-3-3--3-3-3-3-3-3-3-3--2-2-2-2-2-2-2-2--10-10-10-10-10-10-10-10-|
----------------------------------------------------------------------------|
----------------------------------------------------------------------------|
----------------------------------------------------------------------------|
----------------------------------------------------------------------------|

---------------------------|
---------------------------|
---------------------------|
---------------------------|
-----2-0-0-4-5-2-----------|
--3------------------------|

---------------------------------------|
---------------------------------------|
---------------------------------------|
-0-0-4-4-5-----------------------------|
-----------0-----2-0-0-4-5-2-----------|
-------------3-------------------------|repeat


-5-5-5-5-5-5-5----5---7-5-5-5--3-3-3-3-3-3-3--3-3-3-3-3-3-3-|
-3-3-3-3-3-3-3--5---5-----5-5--0-0-0-0-0-0-0--3-3-3-3-3-3-3-|
------------------------------------------------------------|
------------------------------------------------------------|
------------------------------------------------------------|
------------------------------------------------------------|repeat

---------------------------------------|
---------------------------------------|
---------------------------------------|
-0-0-4-4-5-----------------------------|
-----------0-----2-0-0-4-5-2-----------|
-------------3-------------------------|repeat
Tap to rate this tab
# A B C D E F G H I J K L M N O P Q R S T U V W X Y Z