Song name
# A B C D E F G H I J K L M N O P Q R S T U V W X Y Z

Pixies - Hang Wire tab

        Hang Wire by Pixies
Joey Santiago part guitar tab

Intro:
-2--0--0--0--3--2---2--0--0--0--2--0-----------|
-0--0--3--0--0--0---0--0--3--0--0--0-----------|
-----------------------------------------------|
-----------------------------------------------|
-----------------------------------------------|
-----------------------------------------------|

---------------|
--3-4-3-4-3----|
---------------|
---------------|
---------------|
---------------|

Chorus:
----------------------------------------------------------|
----------------------------------------------------------|
-12-12-12-12-11-11-11-11-9-9-9-9-7-7-7-9-8-8-8-8-9-9-9-9--|
-x--x--x--x--x--x--x--x--x-x-x-x-x-x-x-x-x-x-x-x-x-x-x-x--|
-10-10-10-10-9--9--9--9--7-7-7-7-5-5-5-5-6-6-6-6-7-7-7-7--|
----------------------------------------------------------| repeat

--------------------------------------------------|
--0--0-0--0----0--0-0--0--0--0--0--0--0-0--0------|
--4--4-4--4-5--4--4-4--4--4--4--4--4--4-4--4------|
--------------------------------------------------|
--------------------------------------------------|
--------------------------------------------------| repeat

----------------------------------------------------------|
----------------------------------------------------------|
-12-12-12-12-11-11-11-11-9-9-9-9-7-7-7-9-8-8-8-8-9-9-9-9--|
-x--x--x--x--x--x--x--x--x-x-x-x-x-x-x-x-x-x-x-x-x-x-x-x--|
-10-10-10-10-9--9--9--9--7-7-7-7-5-5-5-5-6-6-6-6-7-7-7-7--|
----------------------------------------------------------| repeat

--2--0-----0--3--2----------------------------|
--0--0--3--0--0--0--7--5--3--5--7--5----------|
--------4-----------0--0--0--0--0--0----------|
----------------------------------------------|
----------------------------------------------|
----------------------------------------------|repeat

--------------------------------------------------|
--0--0-0--0----0--0-0--0--0--0--0--0--0-0--0------|
--4--4-4--4-5--4--4-4--4--4--4--4--4--4-4--4------|
--------------------------------------------------|
--------------------------------------------------|
--------------------------------------------------| repeat

--12--12--14b--12---15--11--12--14b-12-------|
---------------------------------------------|
---------------------------------------------|
---------------------------------------------|
---------------------------------------------|
---------------------------------------------| repeat

Ending:

--------------------------------------------------|
-12121212121212127-7-7-7-7-7-7-71313131313131313--|
-x-x-x-x-x-x-x-x-x-x-x-x-x-x-x-x-x-x-x-x-x-x-x-x--|
-9-9-9-9-9-9-9-9-4-4-4-4-4-4-4-41010101010101010--|
--------------------------------------------------|
--------------------------------------------------|

--------------------------------------------------|
-8-8-8-8-8-8-8-8-4-4-4-4-4-4-4-4-5-5-5-5-5-5-5-5--|
-x-x-x-x-x-x-x-x-x-x-x-x-x-x-x-x-x-x-x-x-x-x-x-x--|
-5-5-5-5-5-5-5-5-1-1-1-1-1-1-1-1-2-2-2-2-2-2-2-2--|
--------------------------------------------------|
--------------------------------------------------| repeat
Tap to rate this tab
 
# A B C D E F G H I J K L M N O P Q R S T U V W X Y Z