Song name
# A B C D E F G H I J K L M N O P Q R S T U V W X Y Z

Pixies - Velouria tab

Artist: Pixies
Song: Velouria
Album: Bossanova (1990)
Tuning: Standard eADGBE
Tabbed by: Julian (exfaker) [based on the TAB by G.Chau]


Intro:
e|--------------------------------|
B|--------------------------------|
G|---------------3-3-4--4-4-------|
D|--3-3-4--4-4---3-3-4--4-4-------|
A|--3-3-4--4-4---1-1-2--2-2-------|
E|--1-1-2--2-2--------------------|

e|--------------------------------|
B|--------------------------------|
G|-------------------3-3-4--4-4---|
D|--3-3-3-3-4--4-4---3-3-4--4-4---|
A|--3-3-3-3-4--4-4---1-1-2--2-2---|
E|--1-1-3-3-2--2-2----------------|

e|----------------------------------------------------------------|
B|--7-6-6-4-4--2-2----7-6-6--4-4----7-6-6-4-4--2-2----7-6-6--4-4--|
G|----------------------------------------------------------------|
D|----------------------------------------------------------------|
A|----------------------------------------------------------------|
E|----------------------------------------------------------------|

e|-------------------|
B|--6-7-8-9-11~~~~---|
G|-------------------|
D|-------------------|
A|-------------------|

Verse:
                                                           (vibrato)
e|------------------------------------------------6--------2~2~2~--|
B|------6---4--------6---4--------6----4--------7---4------2~2~2~--|
G|--6-6---6------6-6---6------6-6---6--4-----6-6----4------3~3~3~--| (enter Chords)
D|-------------------------------------4------------4------4~4~4~--|
A|-------------------------------------2------------2------4~4~4~--|
E|---------------------------------------------------------2~2~2~--|

Bb         D#
Velouria
        B
Her covering
F#           Bb
Travelling career
F#             D#
She can really move
B       F#
Oh velveteen

Chorus:
F    F#      Bb   B
My Velouria, my Velouria
F          F#
Even I'll adore ya
Bb   B
My Velouria
F          F#
Even I'll adore ya
Bb    B
My Velouria

Verse:
Bb          D#
Say to me
               B
Where have you been
F#                  Bb
Finally through the roof
F#           D#    B
And how does lemur skin
            F#
Reflect the sea?

B
  We will wade in the shine of the ever
B
  We will wade in the shine of the ever
B
  We will wade in the tides of the summer
B       D
  Every summer, every,
F    F#
My Velouria
Bb   B
My Velouria

e|--------------------------------------------------------------|
B|----7-6-6-4-4-2-2----7-6-6-4-4----6-7-9-10-11-----------------|
G|--------------------------------------------------------------|
D|--------------------------------------------------------------|
A|--------------------------------------------------------------|
E|--------------------------------------------------------------|

Forevergreen

I know she's here
   F#       Bb
In California
F#            D#      B
I can see the tears
         F#
Of shastasheen
F    F#      Bb   B
My Velouria, my Velouria
F         F#
Even I'll adore ya
Bb   B
My Velouria
F         F#
Even I'll adore ya
Bb   B
My Velouria

F F# Bb B (repeat till the end)
Tap to rate this tab
# A B C D E F G H I J K L M N O P Q R S T U V W X Y Z