Song name
# A B C D E F G H I J K L M N O P Q R S T U V W X Y Z

Pixies - Magdalena tab

"Magdalena"
by: Pixies
album: "EP2" (2014)


Intro:

E|--------------------x(19)--|  I don't know how much how 
B|--------------x(19)--------|  to explain this, but try to
G|--------x(19)--------------|  mute the strings in a way 
D|--x(19)--------------------|  that you can still hear a 
A|---------------------------|  metallic sound
E|---------------------------|

Verse:

E|-------------------------------------------|
B|-------------------------------------------|
G|--5-5-5-5---------------10-12-------10-12--|
D|--5-5-5-5-5-5-5-5-10-10-10-12-10-10-10-12--|
A|--3-3-3-3-5-5-5-5-10-10-8--10-10-10-8--10--|
E|----------3-3-3-3-8--8--------8--8---------|

E|-----------------------------------|-----------------------|
B|-----------------------------------|-----------------------|
G|--5-5-5-5--------------------------|--5-5-5-5--------------|
D|--5-5-5-5-5-5-5-5-3-3-8-7-6-6-6-6--|--5-5-5-5-5-5-5-5-8-7--|
A|--3-3-3-3-5-5-5-5-3-3-8-7-6-6-6-6--|--3-3-3-3-5-5-5-5-8-7--|
E|----------3-3-3-3-1-1-6-5-4-4-4-4--|----------3-3-3-3-6-5--|

Chorus:

Guitar 2:

E|---------------------------------------------------|
B|---------------------------------------------------|
G|----------------------------------5-5-5-5-8-8-8-8--|
D|--6-6-6-6-6-6-6-6-6-6-6-6-6-6-6-6-5-5-5-5-8-8-8-8--|
A|--6-6-6-6-6-6-6-6-6-6-6-6-6-6-6-6-3-3-3-3-6-6-6-6--|
E|--4-4-4-4-4-4-4-4-4-4-4-4-4-4-4-4------------------|

E|-----------------------------------------------------------|
B|-----------------------------------------------------------|
G|----------------------------------------10-12-------10-12--|
D|--6-6-6-6-6-6-6-6-5-5-5-5-5-5-5-5-10-10-10-12-10-10-10-12--|
A|--6-6-6-6-6-6-6-6-5-5-5-5-5-5-5-5-10-10-8--10-10-10-8--10--|
E|--4-4-4-4-4-4-4-4-3-3-3-3-3-3-3-3-8--8--------8--8---------|

Guitar 1:

1st Chorus:

E|--18--15--20-----------------|--------------------|
B|-------------------8--6-8----|--8--6-8------6-----|
G|--------------------------5--|---------5-------8--|
D|-----------------------------|--------------------|
A|-----------------------------|--------------------|
E|-----------------------------|--------------------|

2nd Chorus:

E|-----------------------------|--------------------|
B|--6---6---6---6----8--6-8----|--8--6-8------6-----|
G|----8---8---8---8---------5--|---------5-------8--|
D|-----------------------------|--------------------|
A|-----------------------------|--------------------|
E|-----------------------------|--------------------|

Interlude:

E|-------------------------------------|-------------------------------------|
B|-------------------------------------|-------------------------------------|
G|--5-5-5-3-------3-5-5-5-3/5-5-5-5-5--|--5-5-5-3-------3-5-5-5-3/5-5-5-5-5--|
D|--5-5-5-3-5-5-5-3-5-5-5-3/5-5-5-5-5--|--5-5-5-3-5-5-5-3-5-5-5-3/5-5-5-5-5--|
A|--3-3-3-1-5-5-5-1-3-3-3-1/3-3-3-3-3--|--3-3-3-1-5-5-5-1-3-3-3-1/3-3-3-3-3--|
E|----------3-3-3----------------------|----------3-3-3----------------------|

E|-----------------------------------|-----------------------|
B|-----------------------------------|-----------------------|
G|--5-5-5-3--------------------------|--5-5-5-3--------------|
D|--5-5-5-3-5-5-8-7-6-6-8-7-6-6-6-6--|--5-5-5-3-5-5-5-5-8-7--|
A|--3-3-3-1-5-5-8-7-6-6-8-7-6-6-6-6--|--3-3-3-1-5-5-5-5-8-7--|
E|----------3-3-6-5-4-4-6-5-4-4-4-4--|----------3-3-3-3-6-5--|

4th Chorus:

Guitar 1:

E|----------8------------------|--------------------|
B|--8-6---6----------8--6-8----|--8--6-8------6-----|
G|------8-------------------5--|---------5-------8--|
D|-----------------------------|--------------------|
A|-----------------------------|--------------------|
E|-----------------------------|--------------------|

So.. That's how I think this song goes...
If you have any idea of how to improve the tab, let me know
I really hope I've helped you
Thanks!!!!!
Tap to rate this tab
 
# A B C D E F G H I J K L M N O P Q R S T U V W X Y Z