Song name
# A B C D E F G H I J K L M N O P Q R S T U V W X Y Z

Pixies - Blue Eyed Hexe tab

"Blue Eyed Hexe"
by: Pixies
album: "EP2" (2014)

Intro:

E|---------------|-------|-------|-------|
B|---------------|-------|-------|-------|
G|--------6------|--6\5--|--8\5--|--6-5--|
D|--7---7-6-5-7--|--6\5--|--8\5--|--6-5--|
A|--7---7-4-5-7--|--4\3--|--6\3--|--4-3--|
E|--5---5---3-5--|-------|-------|-------|

Verse:

E|-----------------------------|
B|-----------------------------|
G|--------6---------4-4-5-5-6--|
D|--7-7-7-6-5-7-----4-4-5-5-6--|
A|--7-7-7-4-5-7-----2-2-3-3-4--|
E|--5-5-5---3-5----------------|

Chorus:

E|-----------------------------------|
B|-----------------------------------|
G|--------5-5-7-8-9-7-7-7-8-8-9-5----|
D|--7-7-7-5-5-7-8-9-7-7-7-8-8-9-5-5--|
A|--7-7-7-3-3-5-6-7-5-5-5-6-6-7-3-5--|
E|--5-5-5-------------------------3--|

Interlude:

Guitar 2:

E|-----------------------------------|
B|-----------------------------------|
G|------------------7-7-7-7-9-9-9-9--|
D|--7-7-7-7-7-7-7-7-7-7-7-7-9-9-9-9--|
A|--7-7-7-7-7-7-7-7-5-5-5-5-7-7-7-7--|
E|--5-5-5-5-5-5-5-5------------------|

Guitar 1:

E|---------------------------------------------------------------------------------------|
B|-----------------------------------------------13----13----13--------------------------|
G|--14-14-14-12-12-12-------------14----14-12-12----12----12-------14----14----14----14--|
D|--------------------14-14-14-14----14-------------------------14----14----14----14-----|
A|---------------------------------------------------------------------------------------|
E|---------------------------------------------------------------------------------------|

E|-----------------------------10----11-11-12-12-12--------------------------------------|
B|--------------------------10----10--------------------------------------------9-10-----|
G|-----14----14----14----14-------------------------9-9-9-9-12-12-12-12-9----12----------|
D|--14----14----14----14--------------------------------------------------11-------------|
A|---------------------------------------------------------------------------------------|
E|---------------------------------------------------------------------------------------|

So.. That's how I think this song goes...
If you have any idea of how to improve this tab, letme know
I really hope I've helped you
Thank you!!!
Tap to rate this tab
# A B C D E F G H I J K L M N O P Q R S T U V W X Y Z