Song name
# A B C D E F G H I J K L M N O P Q R S T U V W X Y Z

Pixies - Silver Snail tab

"Silver Snail"
by: Pixies
album: There's only the Tiny Desk Concert version
       hope it will appear on the next EP

Intro:

Guitar 1          Guitar2

E|-----------|    |--1-1-1-1-0-0-0-0-0-0-0-0-1-1-1-1-0-0-0-0-0-0-0-0-0-0-0-0-0-0-0-0-0-0-0-0-0-0-0--|
B|--6---5----|    |--3-3-3-3-0-0-0-0-1-1-1-1-1-1-1-1-1-1-1-0-0-0-0-1-1-1-1-1-1-1-1-1-1-1-1-0-0-0-0--|
G|----5---5--|    |--3-3-3-3-1-1-1-1-2-2-2-2-2-2-2-2-2-2-2-1-1-1-1-2-2-2-2-2-2-2-2-2-2-2-2-1-1-1-1--|
D|-----------|    |--3-3-3-3-2-2-2-2-2-2-2-2-3-3-3-3-x-x-x-x-2-2-2-2-2-2-2-2-2-2-2-2-2-2-2-2-2-2-2--|
A|-----------|    |--1-1-1-1-2-2-2-2-0-0-0-0---------2-2-2-2-2-2-2-0-0-0-0-x-x-x-x-x-x-x-x-2-2-2-2--|
E|-----------|    |----------0-0-0-0-----------------------0-0-0-0---------2-2-2-2-1-1-1-1-0-0-0-0--|

E|-----------|    |--0-0-0-0-0-0-0-0-0-0-0-0--|
B|-----------|    |--1-1-1-1-1-1-1-1-1-1-1-1--|
G|-----------|    |--2-2-2-2-2-2-2-2-2-2-2-2--|
D|-----------|    |--2-2-2-2-2-2-2-2-2-2-2-2--|
A|-----------|    |--0-0-0-0-x-x-x-x-x-x-x-x--|
E|--5--3--2--|    |----------3-3-3-3-2-2-2-2--|

Verse:

Guitar 2:

|--1-1-1-1-0-0-0-0-0-0-0-0-1-1-1-1-0-0-0-0-0-0-0-0-0-0-0-0-0-0-0-0-0-0-0-0-0-0-0--|
|--3-3-3-3-0-0-0-0-1-1-1-1-1-1-1-1-1-1-1-0-0-0-0-1-1-1-1-1-1-1-1-1-1-1-1-0-0-0-0--|
|--3-3-3-3-1-1-1-1-2-2-2-2-2-2-2-2-2-2-2-1-1-1-1-2-2-2-2-2-2-2-2-2-2-2-2-1-1-1-1--|
|--3-3-3-3-2-2-2-2-2-2-2-2-3-3-3-3-x-x-x-x-2-2-2-2-2-2-2-2-2-2-2-2-2-2-2-2-2-2-2--|
|--1-1-1-1-2-2-2-2-0-0-0-0---------2-2-2-2-2-2-2-0-0-0-0-x-x-x-x-x-x-x-x-2-2-2-2--|
|----------0-0-0-0-----------------------0-0-0-0---------2-2-2-2-1-1-1-1-0-0-0-0--|

Guitar 1:

E|---------7------|---------8---7--|--12----12-----|
B|----10-------10-|----10----------|-----13----13--|
G|--9----9---9----|--9----9---9----|---------------|
D|----------------|----------------|---------------|
A|----------------|----------------|---------------|
E|----------------|----------------|---------------|

Guitar 1:         Guitar 2:

E|-----------|    |--0-0-0-0-0-0-0-0-0-0-0-0--|
B|----8-7----|    |--1-1-1-1-1-1-1-1-1-1-1-1--|
G|--------9--|    |--2-2-2-2-2-2-2-2-2-2-2-2--|
D|-----------|    |--2-2-2-2-2-2-2-2-2-2-2-2--|
A|-----------|    |--0-0-0-0-x-x-x-x-x-x-x-x--|
E|-----------|    |----------3-3-3-3-2-2-2-2--|

Chorus:

Guitar 2:

E|--2-2-2-2-2-2-2-2-1-1-1-1-1-1-1-1-0-0-0-0-0-0-0-0--|
B|--3-3-3-3-3-3-3-3-1-1-1-1-1-1-1-1-0-0-0-0-0-0-0-0--|
G|--2-2-2-2-2-2-2-2-2-2-2-2-2-2-2-2-1-1-1-1-1-1-1-1--|
D|--0-0-0-0-0-0-0-0-3-3-3-3-3-3-3-3-2-2-2-2-2-2-2-2--|    Guitar 1:
A|------------------3-3-3-3-3-3-3-3-2-2-2-2-2-2-2-2--|    E|---------0--|
E|------------------1-1-1-1-1-1-1-1-0-0-0-0-0-0-0-0--|    B|---------3--|
                                                          G|--5-4-2--2--|
E|--0-0-0-0-0-0-0-0-1-1-1-1-1-1-1-1-0-0-0-0-0-0-0-0--|    D|---------0--|
B|--2-2-2-2-3-3-3-3-1-1-1-1-1-1-1-1-0-0-0-0-0-0-0-0--|    A|------------|
G|--2-2-2-2-2-2-2-2-2-2-2-2-2-2-2-2-1-1-1-1-1-1-1-1--|    E|------------|
D|--2-2-2-2-2-2-2-2-3-3-3-3-3-3-3-3-2-2-2-2-2-2-2-2--|
A|--0-0-0-0-0-0-0-0-3-3-3-3-3-3-3-3-2-2-2-2-2-2-2-2--|
E|------------------1-1-1-1-1-1-1-1-0-0-0-0-0-0-0-0--|

Outro:

E|--------------------------------|
B|--10--------13--------12----13--|
G|--------------------------------|
D|--------------------------------|
A|--------------------------------|
E|--------------------------------|

So... This is how I think the song goes...
If you have any idea of how to improbe the tab, let me know
I really hope I've helped you
Thanks!!!
Tap to rate this tab
# A B C D E F G H I J K L M N O P Q R S T U V W X Y Z