Song name
# A B C D E F G H I J K L M N O P Q R S T U V W X Y Z

Pixies - Where Is My Mind Acoustic tab

Standard Tuning
Intro/Chorus
------------------------------------------------|
---9---9---9---9---9---9------------------------|
-9---9---9---9---8---8---8/9--9-8-9--9-8--------|
------------------------------------------------|
-----7-------7---6-------6/7--------------------|
-0-------0--------------------------------------|

Verse (you can figure out the timing)
-0---4---4---5-----------|
-0---4---5---5-----------|
-1---5---6---6-----------|
-2---6---6---7-----------|
-2---6---4---7-----------|
-0///4-------5-----------|

Sometimes I change the last chord to
-5-------|
-8-------|
-6-------|
-5-------|
-7-------|
-5-------|
to make it a little more bluesy

f8tz
Tap to rate this tab
# A B C D E F G H I J K L M N O P Q R S T U V W X Y Z