Song name
# A B C D E F G H I J K L M N O P Q R S T U V W X Y Z

Pixies - Brick Is Red tab

I tried to do this by ear..had a little trouble..so i had my guitar teacher help me out 
this..so its most likely right..


e|---------0-0-0-0-0-0-0-0------12-------12----------|
B|---------5-5-5-5-5-5-5-5---12-------12-------12----|
G|--0-2-0--------------------------14-------14-------|
D|---------------------------------------------------|
A|---------------------------------------------------|
E|---------------------------------------------------|

e|--------0-0-0-0-0-0-0-0-0------12-------12---------------|
B|--------5-5-5-5-5-5-5-5-5---12-------12-------12---------|
G|-0-2-0----------------------------14-------14------------|
D|---------------------------------------------------------|
A|---------------------------------------------------------|
E|---------------------------------------------------------|

e|--------0-0-0-0-0-0-0-0--8-7-5------------------|
B|--------5-5-5-5-5-5-5-5---------8-7-6-5---------|
G|-0-2-0------------------------------------------|
D|------------------------------------------------|
A|------------------------------------------------|
E|------------------------------------------------|

e|-------------------------12-----12------------------|
B|--------0-0-0-0-0-0-0--12-----12-----12-------------|
G|-0-2-0--3-3-3-3-3-2-0-------14-----14---------------|
D|----------------------------------------------------|
A|----------------------------------------------------|
E|----------------------------------------------------|


e|----------------------3-3-2-3-3-2-3-5-5-3-5-5-5-3-----------------|
B|--------0-0-0-0-0-0-0---------------------------------------------|
G|-0-2-0--3-3-3-3-3-2-0---------------------------------------------|
D|------------------------------------------------------------------|
A|------------------------------------------------------------------|
E|------------------------------------------------------------------|


e|--------------------------------------17-15----------------------------|
B|--------0-0-0-0-0-0-0---12-----12-----------17-15-12-------------------|
G|-0-2-0--3-3-3-3-3-2-0---15b16--15b16-----------------14-12-9-12-14-12--|
D|-----------------------------------------------------------------------|
A|-----------------------------------------------------------------------|
E|-----------------------------------------------------------------------|

e|---------------17-15-------------------------------------------------|
B|-12-----12-----------17-15-12----------------------------------------|
G|-15b16--15b16------------------14-12-9-12-14-12-11-12-12b14----------|
D|---------------------------------------------------------------------|
A|---------------------------------------------------------------------|
E|---------------------------------------------------------------------|


e|------------------------------------|
B|------------------------------------|
G|------------------------------------|
D|------------------------------------|
A|------12~~-----------12~~-----------|
E|--12~~~~~~------12~~~~~~~-----------|


e|--------0-0-0-0-0-0-0-0-----------------17-15----------------------------|
B|--------5-5-5-5-5-5-5-5---12------12-----------17-15-12------------------|
G|-0-2-0--------------------15b16---15b16-----------------14-12-9-12-14-12-|
D|-------------------------------------------------------------------------|
A|-------------------------------------------------------------------------|
E|-------------------------------------------------------------------------|


e|---------------17-15-------------------------------------------------|
B|-12-----12-----------17-15-12----------------------------------------|
G|-15b16--15b16------------------14-12-9-12-14-12-11-12-12b14----------|
D|---------------------------------------------------------------------|
A|---------------------------------------------------------------------|
E|---------------------------------------------------------------------|

e|------------------------------------|
B|------------------------------------|
G|------------------------------------|
D|------------------------------------|
A|------12~~-----------12~~-----------|
E|--12~~~~~~------12~~~~~~~-----------|


e|---------------------7-6-7-7-slide down-------|
B|--------0-0-0-0-0-0--8---8-8-slide down-------|
G|-0-2-0--3-3-3-3-2-0---------------------------|
D|----------------------------------------------|
A|----------------------------------------------|
E|----------------------------------------------|


( the "b" means bend if you don't already know)


i hope you have fun playing this song, i know i did but never by a melon from a cowboy 
an eyepatch.  ( <-- they told me to say it)
Tap to rate this tab
# A B C D E F G H I J K L M N O P Q R S T U V W X Y Z