Song name
# A B C D E F G H I J K L M N O P Q R S T U V W X Y Z

Pixies - There Goes My Gun tab

Help us improve GuitareTab! Take a short survey!
Tabbed by:CMM
Email:see other tabs

Tuning:Standard

1st Guitar = Joey Santiago
2nd Guitar = Black Francis

(1st Guitar Intro/Outro)
e|-----------------------------------------------------------------------|
B|-/9~---------------------7-9b11-9--9~---------------9~----7-9b11-9~----|
G|-----------------------------------------------------------------------|
D|-----------------------------------------------------------------------|
A|-----------------------------------------------------------------------|
E|-----------------------------------------------------------------------|

(2nd Guitar Intro/Outro Chords)
e|----------------|
B|----------------|
G|-2--------------|
D|-2----2----5----|
A|-0----2----5----|
E|------0----3----|

(1st Guitar Verse Chord)
e|--5b--|
B|--7b--|
G|--6b--|
D|--7b--|
A|--5b--|
E|------|

(2nd Guitar Chorus Chords)
e|--------------------|
B|--------------------|
G|-2-------------4----|
D|-2---2----5----4----|
A|-0---2----5----2----|
E|-----0----3---------|

(1st Guitar Solo)
e|-------------------------------------------------------------------------|
B|-------------------------------------------------------------------------|
G|-------------------------------------------------------------------------|
D|-------------------------------------------------------------------------|
A|------0h2h4-2-0-4-2----0h2h4-2-0---------0h2h4-2-0-4-2----0h2h4-2-0------|
E|--2------------------------------2-----------------------------------0---|

(1st Guitar Final Chorus)
e|-5-5-5-5-5-5-5-5-5-5-5-5-4-4-4-4-4-4-4-4-4-4-4-4-3-3-3-3-3-3-3-3-3-3-3-3-|
B|-------------------------------------------------------------------------|
G|-------------------------------------------------------------------------|
D|-------------------------------------------------------------------------|
A|-------------------------------------------------------------------------|
E|-------------------------------------------------------------------------|

e|-2-2-2-2-2-2-2-2-2-2-2-2-------------------------------------------------|
B|-------------------------5-5-5-5-5-5-5-5-5-5-5-5-5-5-5-5-5-5-5-5-5-5-5-5-|
G|-------------------------------------------------------------------------|
D|-------------------------------------------------------------------------|
A|-------------------------------------------------------------------------|
E|-------------------------------------------------------------------------|

e|--------------------------------------------------|
B|-3-3-3-3-3-3-3-3-3-3-3-3-7-7-7-7-7-7-7-7-7-7-7-7--|
G|--------------------------------------------------|
D|--------------------------------------------------|
A|--------------------------------------------------|
E|--------------------------------------------------|


| /  slide up
| \  slide down
| h  hammer-on
| p  pull-off
| ~  vibrato
| +  harmonic
| x  Mute note
===============================================================================
Related for There Goes My Gun tab