Song name
# A B C D E F G H I J K L M N O P Q R S T U V W X Y Z

Pixies - I Bleed tab

    Pixies - I Bleed
 tuning: normal low to high [EADGBE]
 /=Slide
 b=bend
 "=tremlo pick
             this is my second tab on this site, so i hope u get educated from it, plz 
and enjoy dont copywrite it orelse grrrr!

   ~Bass Intro~
G|-------------------------------------------------------------------------|
D|-------------------------------------------------------------------------|
A|-------------------------------------------------------------------------|
E|--2222--9999-2222-7777---------------------------------------------------|

 ~Guitar[lead] Intro/verse~ [clean]
e|-------------------------------------------------------------------------|
B|-------------------------------------------------------------------------|
G|--5/6-6-6---5/6-6--5/6-6---3/4-4--3/4/5/6-6-6--5/6-6--5/6-6---3/4-4-3----|
D|-------------------------------------------------------------------------|
A|-------------------------------------------------------------------------|
E|-------------------------------------------------------------------------|

  ~Chorus [Lead]~[
e|------------------------|------------------------------------------------|
B|---12--12---12--12------|-----11-----------------------------------------|
G|---14b-14b--14b-14b-----|-----13b--[let ring]----------------------------|
D|------------------------|------------------------------------------------|
A|---------X2-------------|-------[end on]---------------------------------|
E|------------------------|------------------------------------------------|
  ~Chorus [Rhythmic]~
e|------------------------|------------------------------|
B|---------X3-------------|--[end on]--------------------|
G|------------------------|------------------------------|
D|------------------------|------------------------------|
A|--4444--11-11-11-11-----|---4--------------------------|
E|--2222--9--9--9--9------|---2--------------------------|
  ~Verse 2~[slight distortion][lead]
e|-------------------------------------------------------------------------|
B|--5/6-6-6--5/6-6--5/6-6---3-4--------------------------------------------|
G|--5/6-6-6--5/6-6--5/6-6---3-4-4-3----------------------------------------|
D|-------------------------------------------------------------------------|
A|-------------------------------------------------------------------------|
E|-------------------------------------------------------------------------|

 ~Chorus lead and Rhythm~

Bridge[Rythmic]
e|-------------------------------------------------------------------------|
B|-------------------------------------------------------------------------|
G|-----------------------------------X3------------------------------------|
D|-------------------------------------------------------------------------|
A|---44-77-9-9-10-11-10-9--------------------------------------------------|
E|---22-55-7-7-8--9--8--7--------------------------------------------------|

Outro [Lead]-play with rhythmic chorus under
e|-------------------------------------------------------------------------|
B|-------------9-----------------------------------------------------------|
G|--11-10-11--11b---X3-----------------------------------------------------|
D|-------------------------------------------------------------------------|
A|-------------------------------------------------------------------------|
E|-------------------------------------------------------------------------|

e|-----------------|---9"--15"--16"----------------------------------------|
B|--11--11---------|-------------------------------------------------------|
G|--12b-12b--------|-------------------------------------------------------|
D|-----------------|------------------------x4-----------------------------|
A|-----------------|-------------------------------------------------------|
E|-----------------|-------------------------------------------------------|

e|-------------------------------------------------------------------------|
B|--15---15--15---15---15-------10-----------------------------------------|
G|--17b--17b-17b--17b--17b------12b--[let ring]----------------------------|
D|-------------------------------------------------------------------------|
A|-------------------------------------------------------------------------|
E|-------------------------------------------------------------------------|

there u have I bleed by pixies........ if u saw my tab on when death replaces life by 
corpse and ask yourself y he doin this tab? well i like all kinds of music basically and 
i despise! grrr!..... so yea
enjoy i bleed by pixies off the Doolittle album.
p.s. do not copywrite!!!!!!!!!!!!!!!!!!
if u have n e questions or comments upon this tab email me at stevo_651@hotmail.com
plz rate!
Tap to rate this tab
 
# A B C D E F G H I J K L M N O P Q R S T U V W X Y Z