Song name
# A B C D E F G H I J K L M N O P Q R S T U V W X Y Z

Pizzicato Five - Baby Love Child tab

Pizzicato Five (P5) song "Baby Love Child" from the album "Made in USA"
Official website: http://columbia.jp/~pizzicato/

This song is quite random, but I've figured most of it out. Feel free to add or correct 
you find wrong here.

Intro part:

Some high toned pipe (clarinet probably):
E||---4------6----4--3------|
B||-------------------------|
G||-------------------------|
D||-------------------------|
A||-------------------------|
E||-------------------------|

Guitar:
E||-----------------------|
B||-----------------------|
G||--------4--------5-----|
D||-----6--------7--------|
A||-----------------------|
E||--4--------5--------3--|


Verse:

Guitar:
E|------3---2---3---2---------|
B|---------------------3-0----|
G|----------------------------|
D|----------------------------|
A|----------------------------|
E|----------------------------|

Bass:
E|-----------------------|-----------------------||
B|-----------------------|-----------------------||
G|*----------------------|----------------------*||
D|*----------------------|----------------------*||
A|-----------------------|-----------------------||
E|---2------2--3------3--|--5------5--3----0-----||

Sometime in the verse, a Clarinet or a similar instrument makes a quick appearance:

|---2-1-2-1-2--5-----||    |---2-1-0-1-2--5-----||
|--------------------||    |--------------------||
|--------------------||    |--------------------||
|--------------------|| Or |--------------------||
|--------------------||    |--------------------||
|--------------------||    |--------------------||

Chorus:

Clarinet:
|------2--2-------3--3----|-----5--5-------3--3-----|
|-------------------------|-------------------------|
|-------------------------|-------------------------|
|-------------------------|-------------------------|
|-------------------------|-------------------------|
|-------------------------|-------------------------|

Guitar and Bass plays the same as verse.

Part after the chorus:
Play intro

Afterwards

Crazy "Attention Girls" sound
E||------------------------------||
B||------------------------------||
G||----------0--2----------0--2--||
D||--2--(2)--------2--(2)--------||
A||------------------------------||
E||------------------------------||

Piano (Uuuu, part):
     F                B
E||--1----------------2----------------||
B||--1----------------4----------------||
G||--2----------------4----------------||
D||--3----------------4----------------||
A||--3----------------2----------------||
E||--1---------------------------------||

Guitar and Bass is the same.
At the end, the bass part differs, but I couldn't figure that one out, sorry guys. For 
sake of it, you can skip the bass part in the section.

That about covers the song. Sorry for a disordered fashion.
Tap to rate this tab
# A B C D E F G H I J K L M N O P Q R S T U V W X Y Z