Guitaretab - guitar tabs
Song name
# A B C D E F G H I J K L M N O P Q R S T U V W X Y Z

Pj Harvey - This Is Love tab

Date: Mon, 15 Jan 2001 09:55:51 -0500
From: AAuuddee@aol.com
Subject: h/harvey_p_j/this_is_love.crd


PJ HARVEY
THIS IS LOVE
FROM THE ALBUM STORIES FROM THE CITY,
STORIES FROM THE SEA
2000
--------------------------------------
Tabbed by AAuuddee@aol.com

To see a list of my tabs,go to my website:
www.multimania.com/aauuddee


NOTE: there seems to be several guitars playing the same
chords but I've just transcribed as if there were only one
guitar...
I'm not sure of everything for guitar2 but it sounds right
anyway! It's just difficult to hear the exact notes that
are played because of the loud distortion and effects.


INTRO:

  F5   G5
------------------------------------|
------------------------------------|
------------------------------------|repeat
--3s5--5--5-------------------------|
--3s5--5--5-------------------------|(repeat this last chord)
--1s3--3--3-------------------------|


VERSE1:

  F5   G5
------------------------------------|
------------------------------------|
------------------------------------|repeat
--3s5--5--5-------------------------|
--3s5--5--5-------------------------|(repeat this last chord)
--1s3--3--3-------------------------|


CHORUS:

 Bb5 C5  F5 G5
---------------|
---------------|
---------------|
--8--10--3--5--|repeat
--8--10--3--5--|
--6--8---1--3--|


VERSE FILL repeated


VERSE2:

Guitar1:
  F5   G5
------------------------------------|
------------------------------------|
------------------------------------|repeat
--3s5--5--5-------------------------|
--3s5--5--5-------------------------|(repeat this last chord)
--1s3--3--3-------------------------|

Guitar2:
--------------|
--------------|
--12~~repeat--|
--------------|
--------------|
--------------|


CHORUS:

Guitar1:
 Bb5 C5  F5 G5
---------------|
---------------|
---------------|
--8--10--3--5--|repeat
--8--10--3--5--|
--6--8---1--3--|

Guitar2: let ring + disto
--------------------|
--15----------------|
-----14--15p14------|
---------------17~--|repeat
--------------------|
--------------------|


VERSE FILL repeated


VERSE3:

Guitar1:
  F5   G5
------------------------------------|
------------------------------------|
------------------------------------|repeat
--3s5--5--5-------------------------|
--3s5--5--5-------------------------|(repeat this last chord)
--1s3--3--3-------------------------|

Guitar2: let ring + disto
------------------------------------|
-----------18-------------15----15--|
--------15----15-------15----15-----|repeat
--15h17----------15h17--------------|
------------------------------------|
------------------------------------|


CHORUS:
[ Tab from: http://www.guitaretab.com/p/pj-harvey/125542.html ]
Guitar1:
 Bb5 C5  F5 G5
---------------|
---------------|
---------------|
--8--10--3--5--|repeat
--8--10--3--5--|
--6--8---1--3--|

Guitar2: let ring + disto
--------------------|
--15----------------|
-----17--17h19--19--|repeat
--------------------|
--------------------|
--------------------|


VERSE FILL repeated


BRIDGE:

Guitar1:
 Bb5 C5  F5 G5=20
----------------------------------------|
----------------------------------------|
----------------------------------------|
--8--10--3s5--5(repeat this last chord)-|
--8--10--3s5--5-------------------------|
--6--8---1s3--3-------------------------|

  F5 G5
---------------------------------|
---------------------------------|
---------------------------------|
--3s5--5(repeat this last chord)-|
--3s5--5-------------------------|
--1s3--3-------------------------|

Guitar2: let ring + disto
--------------------------------------------------------|
--------------------------------------------------------|
-----17--17-(---15----17----15----17)--------------15~--|
--17--------(17----17----17----17---)repeat the ()-17~--|
--------------------------------------------------------|
--------------------------------------------------------|


VERSE FILL repeated


VERSE4:

Guitar1: only guitar at 1st
  F5   G5
------------------------------------|
------------------------------------|
------------------------------------|repeat
--3s5--5--5-------------------------|
--3s5--5--5-------------------------|(repeat this last chord)
--1s3--3--3-------------------------|

Guitar2: starts a bit later (let ring+disto)
--------------|
--------------|
--------------|
--------------|
--10~~repeat--|
--------------|

Then Guitar3 starts as well: let ring+disto
---------------|
---------------|
-----15----15--|repeat
--17----17-----|
---------------|
---------------|


CHORUS:

Guitar1:
 Bb5 C5  F5 G5        F5 G5
--------------------------------------------------------|
--------------------------------------------------------|
-----------------------------------------repeat---------|
--8--10--3--5--repeat-3s5--5--5-------------------------|
--8--10--3--5---------3s5--5--5-------------------------|(repeat this last chord)
--6--8---1--3---------1s3--3--3-------------------------|

Guitar2: let ring + disto
------------------------------------|
-----------18-------------15----15--|
--------15----15-------15----15-----|repeat
--15h17----------15h17--------------|
------------------------------------|
------------------------------------|

--------------------------------|
--------------------------------|
-----17----15---------------15--|
--17----17-----(repeat)--17-----|
--------------------------------|
--------------------------------|

ENJOY!!
Related for This Is Love tab
Advertisement will be closed in 10 seconds