Song name
# A B C D E F G H I J K L M N O P Q R S T U V W X Y Z

Pj Harvey - Black Hearted Love tab

Help us improve GuitareTab! Take a short survey!
"Black Hearted Love" by Polly Jean Harvey and John Parrish

Taken from the album "A Man A Woman Walked By"

Tabbed by MalcolmTucker

This is a pretty rough version - I'm not too good a picking out chords. Consider yourself warned!


[Intro riff]
e|------------------------------------------------------------------|
B|---9999-99-77-00------77-9(10)9-----------------------------------|
G|----------------6-7-9---------------------------------------------|
D|------------------------------------------------------------------|
A|------------------------------------------------------------------|
E|------------------------------------------------------------------|

B A G A B

I think I saw you in the shadows
Dm		A	G	A

I move in closer beneath your windows
Dm		A		G

Who would suspect me of this rapture?
Dm		A		G	A


And who but my black hearted love
B	A	G		A?

e|------------------------------------------------------------------|
B|---9999-99-77-0-------7-9(10)9------------------------------------|
G|----------------6-7-9---------------------------------------------|
D|------------------------------------------------------------------|
A|------------------------------------------------------------------|
E|------------------------------------------------------------------|

And who but my black hearted love
B	A	G		A?

As 1st Verse
When you call out my name in rapture
I volunteer my soul for murder
I wish this moment here forever

Pre chorus
And you are my black hearted love
And you are my black hearted love
In the rain, in the evening I will come again

[Intro Riff]
I'd like to take you;
I'd like to take you to a place I know
My black hearted
I'd like to take you;
I'd like to take you to a place I know
My black hearted
I'd like to take you;
I'd like to take you to a place I know
My black hearted
I'd like to take you;
I'd like to take you to a place I know
My black hearted

E|----------------------------------------|
B|----------------------------------------|
G|--44-777-77-6-44-2-4-44-777-996-44-2-4--|
D|----------------------------------------|
A|----------------------------------------|
E|----------------------------------------| repeat to end
Related for Black Hearted Love tab