Song name
# A B C D E F G H I J K L M N O P Q R S T U V W X Y Z

Pj Harvey - Hook tab

---------------------------------------------------------------------
                          HOOK : PJ Harvey
---------------------------------------------------------------------
Tabbed by: lifer
Email: paranoid_toaster@hotmail.com

Tuning: standard

Main Riff
E|-------------------------------------------------------------------|
B|-------------------------------------------------------------------|
G|----2b-2b---------0-0----------------------------------------------|
D|-------------3b-0-3-3b-0-------------------------------------------|
A|---------0-2----0--------------------------------------------------|
E|-------------------------------------------------------------------|

Chorus
E|-------------------------------------------------------------------|
B|---------3---------------------------------------------------------|
G|---5-5-5-2---------------------------------------------------------|
D|---5-5-5-0---------------------------------------------------------|
A|---3-3-3-----------------------------------------------------------|
E|-------------------------------------------------------------------|

Bridge
E|--------------------------------------------------------------------|
B|--------------------------------------------------------------------|
G|---2-2-2br----------------------------------------------------------|
D|-------------0-3-3b-0-----------------------------------------------|
A|-----------2--------------------------------------------------------|
E|--------------------------------------------------------------------|

Chorus w/ feedback
E|-------------------------------------------------------------------|
B|---3-3-3-3---------------------------------------------------------|
G|---5-5-5-2---------------------------------------------------------|
D|---5-5-5-0---------------------------------------------------------|
A|---3-3-3-----------------------------------------------------------|
E|-------------------------------------------------------------------|

************************************

| /   slide up
| \   slide down
| h   hammer-on
| p   pull-off
| ~   vibrato
| +   harmonic
| x   Mute note
| b   Bend
| pb  Pre-bend
| br  Bend release
| pbr Pre-bend release
| brb Bend release bend

************************************
Tap to rate this tab
 
# A B C D E F G H I J K L M N O P Q R S T U V W X Y Z