Song name
# A B C D E F G H I J K L M N O P Q R S T U V W X Y Z

Pj Harvey - Legs tab

---------------------------------------------------------------------
                         LEGS : PJ Harvey
---------------------------------------------------------------------
Tabbed by: lifer
Email: paranoid_toaster@hotmail.com

Tuning: drop D

     Oh        whoa      whoa your divi-I-HINE
e|-------------00000000----------------------------------------------|
B|---33333333--11111111--00000000----000000033-----------------------|
G|---22222222--22222222--22222222----000000000-----------------------|
D|---00000000--22222222--33333333----000000000-----------------------|
A|-------------00000000--33333333----xxxxxxxxx-----------------------|
D|-----------------------33333333----555555555-----------------------|

Verse
e|-------------------------------------------------------------------|
B|----3--3-3-------------------------------0--3b-x-3-3b--------------|
G|----2--2-2--5-5b---5b-5b--5--------------0--0--x-0-0---------------|
D|----0--0-0--5-5b---5b-5b--5---3--3--3-3--0--0--x-0-0---------------|
A|------------3----x--------3---3--3--3-3--x-------------------------|
D|-----------------x------------3--3--3-3--5-------------------------|

2nd time just play a G5(555xxx)as the last chord

1st Chorus
e|--------------------------------------------------------------------|
B|--------------------------------------------------------------------|
G|--------------------------------------------------------------------|
D|---3-3--3-3-5----3-3--3-3-6-6-5--5-0--------------------------------|
A|---3-3--3-3-5----3-3--3-3-6-6-5--5-0--------------------------------|
D|---3-3--3-3-5----3-3--3-3-6-6-5--5-0--------------------------------|

2nd Chorus and Interlude and 3rd Chorus
e|--------------------------------------------------------------------|
B|--------------------------------------------------------------------|
G|--------------------------------------------------------------------|
D|---3-3--3-3-5-8-0----3-3-0-3-3-6-6-5--5-0---------------------------|
A|---3-3--3-3-5-8-0----3-3-0-3-3-6-6-5--5-0---------------------------|
D|---3-3--3-3-5-8-0----3-3-0-3-3-6-6-5--5-0---------------------------|

That should be all of it. In the part before the interlude where she
has an emotional breakdown, the second time you strum the first two
chords of the intro (D5 and Am) and then the F5 and G5.

************************************

| /   slide up
| \   slide down
| h   hammer-on
| p   pull-off
| ~   vibrato
| +   harmonic
| x   Mute note
| b   Bend
| pb  Pre-bend
| br  Bend release
| pbr Pre-bend release
| brb Bend release bend

************************************
Tap to rate this tab
# A B C D E F G H I J K L M N O P Q R S T U V W X Y Z