Song name
# A B C D E F G H I J K L M N O P Q R S T U V W X Y Z

Pj Harvey - Ecstasy tab

---------------------------------------------------------------------
                          ECSTASY : PJ Harvey
---------------------------------------------------------------------
Tabbed by: lifer
Email: paranoid_toaster

Tuning: standard

This is an alternate way of playing the song if you dont have a
slider. It doesnt sound nearly as cool though. Youve been warned.

Main Riff
e|------0------0--0---0--0-------------------------------------------|
B|------0------0--0---0--0-------------------------------------------|
G|------0------x--x---x--x-------------------------------------------|
D|---------2/--7--7\--5--5\------------------------------------------|
A|---------2/--7--7\--5--5\------------------------------------------|
E|---0---------------------------------------------------------------|

Chorus
e|------------------0------------------------------------------------|
B|------------------0------------------------------------------------|
G|------------------0------------------------------------------------|
D|-------------------------------------------------------------------|
A|-------------------------------------------------------------------|
E|---7--7--5--3--0---------------------------------------------------|

Not sure about the end jam. Be spontaneous.
Tap to rate this tab
 
# A B C D E F G H I J K L M N O P Q R S T U V W X Y Z