Song name
# A B C D E F G H I J K L M N O P Q R S T U V W X Y Z

Pj Harvey - Snake tab

---------------------------------------------------------------------
                         SNAKE : PJ Harvey
---------------------------------------------------------------------
Tabbed by: lifer
Email: paranoid_toaster@hotmail.com

Tuning: standard

Main
e|-------------------------------------------------------------------|
B|-------------------------------------------------------------------|
G|---7-7-7-----------------------------------------------------------|
D|---7-7-7-2-2-2-----------------------------------------------------|
A|---5-5-5-2-2-2-----------------------------------------------------|
E|---------0-0-0-----------------------------------------------------|

Variation (Said want it all, its yours..)
e|-------------------------------------------------------------------|
B|-------------------------------------------------------------------|
G|---7-7-7-----------------------------------------------------------|
D|---7-7-7-5-5-5-7-7-7-5-5-5-7-7-7-2-2-2-----------------------------|
A|---5-5-5-5-5-5-7-7-7-5-5-5-7-7-7-2-2-2-----------------------------|
E|---------3-3-3-5-5-5-3-3-3-5-5-5-0-0-0-----------------------------|

Quiet part
Riff A
e|--------------------------------------------------------------------|
B|--------------------------------------------------------------------|
G|--------------------------------------------------------------------|
D|---------7-7-7------------------------------------------------------|
A|---------5-5-5------------------------------------------------------|
E|---0-0-0------------------------------------------------------------|
Pm  |-----------------------------------------------------------------|

Riff B
e|--------------------------------------------------------------------|
B|--------------------------------------------------------------------|
G|--------------------------------------------------------------------|
D|---------2-2-2------------------------------------------------------|
A|---------0-0-0------------------------------------------------------|
E|---3-3-3------------------------------------------------------------|
Pm  |-----------------------------------------------------------------|

Quiet part is:
Riff A x4
Riff B x2
Riff A`x2
Repeat
Tap to rate this tab
# A B C D E F G H I J K L M N O P Q R S T U V W X Y Z