Song name
# A B C D E F G H I J K L M N O P Q R S T U V W X Y Z

Pj Harvey - Black Hearted Love tab

Title: Black Hearted Love
Artist: PJ Harvey & John Parish
Album: A woman a man walked by
Tempo = 108
E-Gt Crunch


Legend
L - tied note
x - dead note
h - hammer on/pull off
b - bend
s - slide
~ - vibrato
g - ghost note
> - accentuated note
t - trill
M - palm mute
. - staccato
P - popping (bass)
S - slapping (bass)
+ - tapping
W - wide vibrato
< - fade in
w - whammy bar
= - tremolo picking
v - brush up
^ - brush down
V - pick stroke up
n - pick stroke down


/Intro/ = /Chorus/ 

E |-------|----------------------------|----------------------------|
B |--9----|--9--9--9--9--------9--9----|--9--9--9--9--9-------------|
G |--9----|--9--9--9--9--------9--9----|--9--9--11-9--9--------2L---|
D |--12---|--12-12-12-12-------12-12---|--9--9--9--9--11-------0L---|
A |--9----|--9--9--9--9--------9--9----|--9--9--9--9--9--------0L---|
D |--9----|--9--9--9--9--------9--9----|--9--9--9--9--9--------0L---|


----------------------------|---------------------------||
----------------------------|--------------------9------||
--2--2--2-----2-------------|--------------------9-----o||
--0--0--0-----0--------0L---|--0--0--0--0--0-----12----o||
--0--0--2-----0--------7L---|--7--7--7--7--7-----9------||
--0--0--0-----0--------7L---|--7--7--7--7--7-----9------||


----------------------------|----------------------------|
--9-----9-----9--9-----9----|--9-----9-----9--9----------|
--9-----9-----9--9-----9----|--9-----9-----9--9----------|
--9-----9-----9--9-----9----|--9-----9-----9--9--0-------|
--9-----9-----9--9-----9----|--9-----9-----9--9--7-------|
--9-----9-----9--9-----9----|--9-----9-----9--9--7-------|

                                                            /verse/
----------------------------|----------------------------||----------|-(1)(1)---|
--3--------3--3--3--3-------|--3-----3--------3----------||--3--3----|--3--3----|
--0--------0--0--0--0.------|--5-----5--------5.---------||o-2--2----|--2--2----|
--0--------0--0--0--0-------|--5-----5--------5----------||o-0--0----|--0--0----|
--5--------5--5--5--5-------|--3-----3--------3----------||----------|----------|
--5--------5--5--5--5-------|--3-----3--------3----------||----------|----------|


            1.,2.       3x  3rd time............................
----------|---------------||-------|-------|-------|-------|----------------||
--3--3----|--3------------||--7----|--9----|--9----|-------|-----------9----||
--0--0----|--5-----------o||--7----|--9----|--11---|--5----|--7--------9----||
--0--0----|--5-----------o||--10---|--9----|--9----|--0----|--7--------12---||
--5--5----|--3------------||--7----|--9----|--9----|--5----|--7--------9----||
--5--5----|--3------------||--7----|--9----|--9----|--5----|--7--------9----||
                                            

/Chorus/
---------------------------|----------------------------|
-9--9--9--9--------9--9----|--9--9--9--9--9-------------|
o9--9--9--9--------9--9----|--9--9--11-9--9--------2L---|
o12-12-12-12-------12-12---|--9--9--11-11-11-------0L---|
-9--9--9--9--------9--9----|--9--9--9--9--9--------0L---|
-9--9--9--9--------9--9----|--9--9--9--9--9--------0L---|


----------------------------|---------------------------||
----------------------------|--------------------9------||
--2--2--2-----2-------------|--------------------9-----o||
--0--0--0-----0--------0L---|--0--0--0--0--0-----12----o||
--0--0--2-----0--------7L---|--7--7--7--7--7-----9------||
--0--0--0-----0--------7L---|--7--7--7--7--7-----9------||


----------------------------|----------------------------|
--9-----9-----9--9-----9----|--9-----9-----9--9----------|
--9-----9-----9--9-----9----|--9-----9-----9--9----------|
--9-----9-----9--9-----9----|--9-----9-----9--9--0-------|
--9-----9-----9--9-----9----|--9-----9-----9--9--7-------|
--9-----9-----9--9-----9----|--9-----9-----9--9--7-------|
 
                                               ...to verse |  /Outro/
----------------------------|----------------------------| | |-------|-------|
--3--------3--3--3--3-------|--3-----3--------3----------| | |-------|-------|
--0--------0--0--0--0.------|--5-----5--------5.---------| | |o-0----|--7----|
--0--------0--0--0--0-------|--5-----5--------5----------| | |o-0----|--7----|
--5--------5--5--5--5-------|--3-----3--------3----------| | |--5----|--7----|
--5--------5--5--5--5-------|--3-----3--------3----------| | |--5----|--7----|


-------|-------|-------|------||---------------||
-------|--10---|--3----|------||--0L-----------||
--9----|--9----|--0----|--7--o||--3L-----------||
--12---|--9----|--0----|--7--o||--0L-----------||
--9----|--9----|--5----|--7---||--5L-----------||
--9----|--9----|--5----|--7---||--5L-----------||


========================================================================

A distorted guitar plays this part on Intro and Chorus:

E |-------||----------------------------|----------------------------|
B |--9----||--9--9--9--9--------9--9----|-----------------------10L--|
G |-------||o---------------------------|--11-11----------9--11------|
D |-------||o---------------------------|--------9--11-12------------|
A |-------||----------------------------|----------------------------|
D |-------||----------------------------|----------------------------|


----------------------------|---------------||----------------|----------------|
--10-9-----9--------9-------|--9--9--9--9---||--9--9--9--9----|----------------|
----------------------------|--------------o||----------------|--11-11-11-11---|
----------------------------|--------------o||----------------|----------------|
----------------------------|---------------||----------------|----------------|
----------------------------|---------------||----------------|----------------|


----------------------------|-------|
----------------------------|-------|
--9-----9-----9--9----------|-------|
----------------------------|-------|
----------------------------|-------|
----------------------------|-------|

========================================================================

I think I saw you in the shadows
I move in closer beneath your windows
Who would suspect me of this rapture?

And who but my black hearted love
And who but my black hearted love

When you call out my name in rapture
I volunteer my soul for murder
I wish this moment here forever

And you are my black hearted love
And you are my black hearted love
In the rain, in the evening I will come again

I'd like to take you;
I'd like to take you to a place I know
My black hearted
I'd like to take you;
I'd like to take you to a place I know
My black hearted
I'd like to take you;
I'd like to take you to a place I know
My black hearted
I'd like to take you;
I'd like to take you to a place I know
My black hearted...

in the rain, in the evening
in the garden, i will come again
mouth to mouth
again, again...
Tap to rate this tab
# A B C D E F G H I J K L M N O P Q R S T U V W X Y Z