Song name
# A B C D E F G H I J K L M N O P Q R S T U V W X Y Z

Pj Harvey - Horses In My Dreams tab

_-_-_-_-_-_-_-_-_-_-_-_-_-_-_-_-_-_-_-_-_-_-_-_-_-_-_-_-_-_-_-_-_-_-_-_-_-_-_

Transcribed by Kai O'Brien


A quick one.


TUNING:  CGCGA#D#

Intro

-(0)-(0)-(0)-|
-(0)-(0)-(0)-|
-(0)-(0)-(0)-|
--3---5---8--|
--3---5---8--|
--3---5---8--|

Verse

-------------------------|
-------------------------|
-------------------------|
-3-0-3-0-3/5-5-5---5---5-|
-3-0-3-0-3/5-5-5---5---5-|
-3-0-3-0-3/5-5-5---5---5-|

Other Riff

---------------|
---------------|
-------5-------|
-5-5/7---7-5---|
-------------5-|
---------------|

Chorus

-(0)-(0)-(0)-|
-(0)-(0)-(0)-|
-(0)-(0)-(0)-|
--8---3---5--|
--8---3---5--|
--8---3---5--|


Your thoughts?
Tap to rate this tab
# A B C D E F G H I J K L M N O P Q R S T U V W X Y Z