Song name
# A B C D E F G H I J K L M N O P Q R S T U V W X Y Z

Pj Harvey - The Letter tab

Intro/Verse:

e|-----------------------------------------------------------------------------|
B|---------------------5--5-3------------------5--5-3--------------------------|
G|-----------------------------------------------------------------------------|
D|-----4--------2-----------------4-------2------------------------------------|
A|-2-2----5-5-2--5------------2-2---5-5-2--5-----------------------------------|
E|-----------------------------------------------------------------------------|

e|--------------------------------------------------------------------------------|
B|---------------------5--5-3-------------------5-5-3/7-7-------------------------|
G|--------------------------------------------------------------------------------|
D|-----4--------2------------------4-------2--------------------------------------|
A|-2-2----5-5-2--5-------------2-2---5-5-2--5-------------------------------------|
E|--------------------------------------------------------------------------------|

Chorus:

e|-2-2-2222-5-5-55-55--------------------------------------------------------------------|
B|-3-3-3333-6-6-66-55--------------------------------------------------------------------|
G|-4-4-4444-7-7-77-55--------------------------------------------------------------------|
D|-4-4-4444-7-7-77-55--------------------------------------------------------------------|
A|-2-2-2222-5-5-55-55--------------------------------------------------------------------|
E|-2-2-2222-5-5-55-55--------------------------------------------------------------------|

           x4

Bridge:

e|-7-7-7-7-------------------------------------------------------------------|
B|--7-7-7-7------------------------------------------------------------------|
G|---------------------------------------------------------------------------|
D|---------------------------------------------------------------------------|
A|---------------------------------------------------------------------------|
E|---------------------------------------------------------------------------|

           x4

| /  slide up
| \  slide down
| h  hammer-on
| p  pull-off
| ~  vibrato
| +  harmonic
| x  Mute note
Tap to rate this tab
# A B C D E F G H I J K L M N O P Q R S T U V W X Y Z