Song name
# A B C D E F G H I J K L M N O P Q R S T U V W X Y Z

Pj Harvey - This Mess Were In tab

I think this is it. If you disagree or have a suggestion to improve this tab please
let me know.

1)Intro
e -----------------------------------------------------------------------------|
B -----------------------------------------------------------------------------|
G -----------------------------------------------------------------------------|
D -222-222-222-222-222-222-222-222-222-222-222-222-3s555-555-55-3s555-555-55---|
A -000-333-333-000-333-333-000-333-333-000-333-333-3s555-333-33-3s555-555-55---|
E -----------------------------------------------------------------------------|

e ------------------------------------------------------------------------------|
B ------------------------------------------------------------------------------|
G --------------------------10101010-10101010-7777-7777-------------------------|
D -222-222-222-222-222-222--10101010-10101010-7777-7777-222-222-222-222-222-222-|
A -000-333-333-000-333-333--8-8-8-8--8-8-8-8--5555-5555-000-333-333-000-333-333-|
E ------------------------------------------------------------------------------|

e -----------------------------------------------------------------------------|
B -----------------------------------------------------------------------------|
G -10101010-10101010-7777-7777-------------------------------------------------|
D -10101010-10101010-7777-7777-222-222-222-222-222-222-------------------------|
A -8-8-8-8--8-8-8-8--5555-5555-000-333-333-000-333-333-------------------------|
E -----------------------------------------------------------------------------|

2)Verse
   Can you hear them? The helicopters  I'm in new york No need for words now
e -----------------------------------------------------------------------------|
B -----------------------------------------------------------------------------|
G -----------------------------------------------------------------------------|
D -222-222-222-222-222-222-222-222-222-222-222-222-3s555-555-55-3s555-555-55---|
A -000-333-333-000-333-333-000-333-333-000-333-333-3s555-333-33-3s555-555-55---|
E -----------------------------------------------------------------------------|

               We sit in silence You look me In the eye directly You met me
e -----------------------------------------------------------------------------|
B -----------------------------------------------------------------------------|
G -----------------------------------------------------------------------------|
D -222-222-222-222-222-222-222-222-222-222-222-222-222-222-222-222-222-222-----|
A -000-333-333-000-333-333-000-333-333-000-333-333-000-333-333-000-333-333-----|
E -----------------------------------------------------------------------------|

   I think it's wednesday The evening The mess we're in and Aaah...
e -----------------------------------------------------------------------------|
B -----------------------------------------------------------------------------|
G -----------------------------------------------------------------------------|
D -3s555-555-55-3s555-555-55-222-222-222-222-222-222---------------------------|
A -3s555-333-33-3s555-555-55-000-333-333-000-333-333---------------------------|
E -----------------------------------------------------------------------------|

3)Chorus
   The city sun set over me
e -----------------------------------------------------------------------------|
B -----------------------------------------------------------------------------|
G -10101010-10101010-7777-7777-------------------------------------------------|
D -10101010-10101010-7777-7777-222-222-222-222-222-222-------------------------|
A -8-8-8-8--8-8-8-8--5555-5555-000-333-333-000-333-333-------------------------|
E -----------------------------------------------------------------------------|

This chorus is played twice, then comes another verse and so on and so on...
Tap to rate this tab
# A B C D E F G H I J K L M N O P Q R S T U V W X Y Z