Song name
# A B C D E F G H I J K L M N O P Q R S T U V W X Y Z

Pj Harvey - Who The Fuck tab

-----------------------------------------------------------------------------

				Who the fuck ? - BY PJ Harvey

-----------------------------------------------------------------------------

These are the three main riffs.
Notice the tuning not very easy to find out but i think it sounds good !


E|---------------------------------------------------------------------------|
C|---------------------------------------------------------------------------|
G|---------------------------------------------------------------------------|
D|---------------------------------------------------------------------------|
C|--10--10----7-7-7-7----10--10-----7-7-7-7-----5--5----9-9-9-9--------------|
G|--x---x-----0-0-0-0----x---x------0-0-0-0-----3--3----x-x-x-x--------------|


E|---------------------------------------------------------------------------|
C|---------------------------------------------------------------------------|
G|---------------------------------------------------------------------------|
D|---------------------------------------------------------------------------|
C|--12-14-14-14-15-15-15-12-14-14-14-15-15-15-12-14-14-14-17-17-17-12-14-14--|
G|--0--0--0--0--0--0--0--0--0--0--0--0--0--0--0--0--0--0--0--0--0--0--0--0---|

E|---------------------------------------------------------------------------|
C|---------------------------------------------------------------------------|
G|---------------------------------------------------------------------------|
D|---------------------------------------------------------------------------|
C|14-5-5-5-------------------------------------------------------------------|
G|0--0-0-0-------------------------------------------------------------------|


E|---------------------------------------------------------------------------|
C|---------------------------------------------------------------------------|
G|---------------------------------------------------------------------------|
D|---------------------------------------------------------------------------|
C|---------------------------------------------------------------------------|
G|--9-9-9-10-10-10-10-10-15-15-15-12-12-12-----------------------------------|


Enjoy !


Tabbed by GyBE

mog_wai000@hotmail.com
Tap to rate this tab
# A B C D E F G H I J K L M N O P Q R S T U V W X Y Z