Song name
# A B C D E F G H I J K L M N O P Q R S T U V W X Y Z

Pj Harvey - Sweeter Than Anything Live tab

------------------------------------------------------------------------
	SWEETER THAN ANYTHING - PJ Harvey
------------------------------------------------------------------------
Tabbed by: Leah Maria
This is my 2nd tab.
Tuning: Standard


Main Riff:
These are the main chords, you can listen for the rhythm.

e|---------|
B|---------|
G|---------|
D|-9--7--5-|
A|-9--7--5-|
E|-7--5--3-|

Interlude thing
e|-----------------------------|
B|-----------------------------|
G|-7/9/7--7/9/7--7/9/7/9/7/9/7-|
D|-----------------------------|
A|-----------------------------|
E|-----------------------------|  
The same the D string only 12 & 14-it's your preference.

"How can this be?" part:
   Rhythm Chords:    Main:
e|----------------|---------|
B|----------------|---------|
G|----------------|---------|
D|--7/5-/7--------|--9/7-/9-|
A|--7/5-/7--------|---------|
E|--5/3-/5--------|---------|

There's some strumming and then a slide, but if you are learning this, you've probably heard it.
Tap to rate this tab
 
# A B C D E F G H I J K L M N O P Q R S T U V W X Y Z