Song name
# A B C D E F G H I J K L M N O P Q R S T U V W X Y Z

Pj Harvey - Missed tab

Highlighted       Show chord diagrams
________________________________________________
my contact: 
http://www.fotolog.com/pollyjeanharvey1  or
http://pollyjeanharvey1.blogspot.com/
________________________________________________

MISSED
(exactly like pj plays)

Intro
Gn - G - Fm (4x)


Gn
He should not be hid

----------Fm
He's just too big

-------Gn
In a cloud

-------------Fm
Please come down

---------Cm7
I'd put stars

---------Am7
At your feet

-----Fm
Put mars

---------Gn
At your head

-----------------Gn
Show yourself to me

--------Fm
And I'd believe

-----Gn
I'd moan

-----Fm
And I'd weep

-----Cm7
Fall silent

--------Am7
At your speak

-----Fm
I'd burst it

------Am7
Full to the brim



---------------Gn
Mary lost her head

---------Fm
And let it bleed

-------Gn
Came crying

------Fm
Back to me

---Cm7
My son

----------Am7
Where's he 'bin? 

-------Fm
Don't deny it

-----------Gn
Don't you hide him



Gn - G - Fm (4x)
No
I've missed him
(Chorus is equal intro)



----Gn
No word

----Fm
No sign

-----Gn
Mary say

---------Fm
I'm not lying

----Cm7
How come

--------Am7
He's so big

---------Fm
But good lord

----------Am7
He's been hid

------Fm
Good lord

----------Gn
Where you hid



Gn - G - Fm (8x)
No
I've missed him



___________________________________________________________________________
Gn - 535433 (ACGBDG)

  0  1   2   3   4   5
e|-|---|---|-1-|---|---|
B|-|---|---|-1-|---|---|
G|x|---|---|-1-|-2-|---|
D|x|---|---|-1-|---|-4-|
A|x|---|---|-1-|---|---|
E|x|---|---|-1-|---|-3-|



G - 355433 (GDGBDG)

  0  1   2   3   4   5
e|-|---|---|-1-|---|---|
B|-|---|---|-1-|---|---|
G|x|---|---|-1-|-2-|---|
D|x|---|---|-1-|---|-4-|
A|x|---|---|-1-|---|-3-|
E|x|---|---|-1-|---|---|



Fm - 133111 (FCFG#CF)

  0  1   2   3   4   5
e|-|-1-|---|---|---|---|
B|-|-1-|---|---|---|---|
G|x|-1-|---|---|---|---|
D|x|-1-|---|-4-|---|---|
A|x|-1-|---|-3-|---|---|
E|x|-1-|---|---|---|---|



Cm7 - 8108888 (CGA#D#GC)

  0  8   9   10  11  12
e|-|-1-|---|---|---|---|
B|-|-1-|---|---|---|---|
G|x|-1-|---|---|---|---|
D|x|-1-|---|---|---|---|
A|x|-1-|---|-3-|---|---|
E|x|-1-|---|---|---|---|



Am7 - 575555 (AEGCEA)

  0  5   6   7   8   9
e|-|-1-|---|---|---|---|
B|-|-1-|---|---|---|---|
G|x|-1-|---|---|---|---|
D|x|-1-|---|---|---|---|
A|x|-1-|---|-3-|---|---|
E|x|-1-|---|---|---|---|

Tap to rate this tab
 
# A B C D E F G H I J K L M N O P Q R S T U V W X Y Z