Song name
# A B C D E F G H I J K L M N O P Q R S T U V W X Y Z

Pj Harvey - Life And Death Of Mr Bad Mouth tab

he Life and Death Of Mr. Bad Mouth
By pJ Harvey on Uh Huh her

tuning
E
B
G
D
G
C

I'm pretty sure this is the tuning she uses......
E------------------------------------------|
B------------------------------------------|
G------------------------------------------|
D-----xx--0-3---xx-0-3---xx-0-3--5-5--3-3--|
G-----xx--0-3---xx-0-3---xx-0-3--5-5--3-3--|
C-----xx--0-3---xx-0-3---xx-0-3--5-5--3-3--|

Main riff


Chorus

E----------------------------------------------|
B----------------------------------------------|
G----------------------------------------------|
D--8-8-8-8-8-8-8-8-8--10-10-10-10-10-10-10-10--|
G--8-8-8-8-8-8-8-8-8--10-10-10-10-10-10-10-10--|
C--8-8-8-8-8-8-8-8-8--10-10-10-10-10-10-10-10--|

E-----------------------------------|
B-----------------------------------|
G-----------------------------------|
D--15-15-15-15-15--13-13-13-13--12--|
G--15-15-15-15-15--13-13-13-13--12--|
C--15-15-15-15-15--13-13-13-13--12--|LET RING
"your lips taste of poison"
Tap to rate this tab
# A B C D E F G H I J K L M N O P Q R S T U V W X Y Z