Song name
# A B C D E F G H I J K L M N O P Q R S T U V W X Y Z

Pj Liguori - Great Fairy Bokeh tab

I think this is right, give it a go.

9-------7-------6-------7-------6-------5-------4-------5---------|
--7---7---7---7---7---7---7---7---5---5---5---5---5---5---5---5---|
----7-------7-------7-------7-------6-------6-------6-------6-----|
------------------------------------------------------------------|
------------------------------------------------------------------|
------------------------------------------------------------------|

5-------4-------3-------4-------4-------2-------1-------2---------|
--3---3---3---3---3---3---3---3---2---2---2---2---2---2---2---2---|
----4-------4-------4-------4-------2-------2-------2-------2-----|
------------------------------------------------------------------|
------------------------------------------------------------------|
------------------------------------------------------------------|

9-------7-------6-------7-------10------9-------8-------8---------|
--7---7---7---7---7---7---7---7---8---8---8---8---8---8---8---8---|
----7-------7-------7-------7-------9-------9-------9-------9-----|
------------------------------------------------------------------|
------------------------------------------------------------------|
------------------------------------------------------------------|

12------10------9-------10--------|
--10--10--10--10--10--10--10--10--|
----11------11------11------11----|
----------------------------------|
----------------------------------|
----------------------------------|

Retard for this part...

9-----9-7-----7-5-----5-4---5-|
--7-------5-------3-----3---5-|
----7-------6-------4---4---6-|
----------------------------7-|
------------------------------|
------------------------------|
Tap to rate this tab
 
# A B C D E F G H I J K L M N O P Q R S T U V W X Y Z