Song name
# A B C D E F G H I J K L M N O P Q R S T U V W X Y Z

Pk - Berelain tab

Intro
eb-----12-11-----------12-11-------------|
Bb---9-------12-9----9-------12-9---9-9--|
Gb--9-9-------------9-9------------9-9-9-| x2
Db-7---------------7--------------7------|
Ab---------------------------------------|
Eb---------------------------------------|

Verse
eb-------------------------------|
Bb-------------------------------|
Gb-----------------4-------------|
Db--7-------2------4-x7---2------|
Ab--7-x7----2--x7--2------2-x7---|
Eb--5-------0-------------0------|

"There's a riot in my chest.."

eb-----------------------------------------------------|
Bb-----------------------------------------------------|
Gb--1313-13-13-13-13-11111111-1616-16-16-1614-14141413-|
Db--1414-14-14-14-14-14141414-1414-14-14-1414-14141414-|
Ab-----------------------------------------------------|
Eb-----------------------------------------------------|

eb---------------------------------------------------------|
Bb---------------------------------------------------------|
Gb--1313-13-13-13-13-11-11111111-1616-16-16-16-16-16161616-|
Db--1414-14-14-14-14-14-14141414-1414-14-14-14-14-14141414-|
Ab---------------------------------------------------------|
Eb---------------------------------------------------------|

Chorus rythm
eb--------------------------|
Bb-------------4------------|
Gb-7-----2-----4-x8--2------|
Db-7-x8--2-x8--2-----2-x8---|
Ab-5-----0-----------0------|

Chorus lead (same as intro)

Verse 2

Solo (there are 2 guitars playing different things)

Guitar 1
eb------------------------------------------------|
Bb---131313131313131313131313-11-11-11------------|
Gb------------------------------------------------|
Db------------------------------------------------|
Ab------------------------------------------------|

Guitar 2
eb-------------------------------|
Bb-----12-12-12------------------|
Gb---13--13-13-13131313-11-11-11-|
Db-------------------------------|
Ab-------------------------------|

Breakdown guitar

eb--------------------------------|
Bb--------------------------------|
Gb-------------------4------------|
Db--7-------2--------4-x7----2----|
Ab--7-x7----2--x7----2-------2-x7-|
Eb--5-------0----------------0----|

then

eb-----------------------------------------------------|
Bb-----------------------------------------------------|
Gb--1313-13-13-13-13-11111111-1616-16-16-1614-14141413-|
Db--1414-14-14-14-14-14141414-1414-14-14-1414-14141414-|
Ab-----------------------------------------------------|
Eb-----------------------------------------------------|

eb---------------------------------------------------------|
Bb---------------------------------------------------------|
Gb--1313-13-13-13-13-11-11111111-1616-16-16-16-16-16161616-|
Db--1414-14-14-14-14-14-14141414-1414-14-14-14-14-14141414-|
Ab---------------------------------------------------------|
Eb---------------------------------------------------------|

louder section both guitars play

eb--------------------------------|
Bb--------------------------------|
Gb-------------------4------------|
Db--7-------2--------4-x7----2----|
Ab--7-x7----2--x7----2-------2-x7-|
Eb--5-------0----------------0----|

Chorus

end with

eb
Bb-12/--------------|
Gb-11/-x8-----------|
Db--9/--------------|
Tap to rate this tab
# A B C D E F G H I J K L M N O P Q R S T U V W X Y Z